  0
SECTION
  2
HEADER
  9
$ACADVER
  1
AC1015
  9
$ACADMAINTVER
 70
     6
  9
$DWGCODEPAGE
  3
ANSI_1254
  9
$INSBASE
 10
0.0
 20
0.0
 30
0.0
  9
$EXTMIN
 10
0.0
 20
0.0
 30
0.0
  9
$EXTMAX
 10
279.4
 20
215.9
 30
0.0
  9
$LIMMIN
 10
0.0
 20
0.0
  9
$LIMMAX
 10
279.4
 20
215.9
  9
$ORTHOMODE
 70
     0
  9
$REGENMODE
 70
     1
  9
$FILLMODE
 70
     1
  9
$QTEXTMODE
 70
     0
  9
$MIRRTEXT
 70
     1
  9
$LTSCALE
 40
1.0
  9
$ATTMODE
 70
     1
  9
$TEXTSIZE
 40
3.5
  9
$TRACEWID
 40
1.0
  9
$TEXTSTYLE
  7
Standard
  9
$CLAYER
  8
0
  9
$CELTYPE
  6
ByLayer
  9
$CECOLOR
 62
   256
  9
$CELTSCALE
 40
1.0
  9
$DISPSILH
 70
     0
  9
$DIMSCALE
 40
1.0
  9
$DIMASZ
 40
3.5
  9
$DIMEXO
 40
1.0
  9
$DIMDLI
 40
3.75
  9
$DIMRND
 40
0.0
  9
$DIMDLE
 40
0.0
  9
$DIMEXE
 40
1.0
  9
$DIMTP
 40
0.0
  9
$DIMTM
 40
0.0
  9
$DIMTXT
 40
3.5
  9
$DIMCEN
 40
2.5
  9
$DIMTSZ
 40
0.0
  9
$DIMTOL
 70
     0
  9
$DIMLIM
 70
     0
  9
$DIMTIH
 70
     1
  9
$DIMTOH
 70
     1
  9
$DIMSE1
 70
     0
  9
$DIMSE2
 70
     0
  9
$DIMTAD
 70
     1
  9
$DIMZIN
 70
     0
  9
$DIMBLK
  1

  9
$DIMASO
 70
     1
  9
$DIMSHO
 70
     1
  9
$DIMPOST
  1

  9
$DIMAPOST
  1

  9
$DIMALT
 70
     0
  9
$DIMALTD
 70
     3
  9
$DIMALTF
 40
0.0393700787
  9
$DIMLFAC
 40
1.0
  9
$DIMTOFL
 70
     1
  9
$DIMTVP
 40
0.0
  9
$DIMTIX
 70
     0
  9
$DIMSOXD
 70
     0
  9
$DIMSAH
 70
     0
  9
$DIMBLK1
  1

  9
$DIMBLK2
  1

  9
$DIMSTYLE
  2
ISO-25
  9
$DIMCLRD
 70
     0
  9
$DIMCLRE
 70
     0
  9
$DIMCLRT
 70
     0
  9
$DIMTFAC
 40
1.0
  9
$DIMGAP
 40
1.524
  9
$DIMJUST
 70
     0
  9
$DIMSD1
 70
     0
  9
$DIMSD2
 70
     0
  9
$DIMTOLJ
 70
     0
  9
$DIMTZIN
 70
     0
  9
$DIMALTZ
 70
     0
  9
$DIMALTTZ
 70
     0
  9
$DIMUPT
 70
     0
  9
$DIMDEC
 70
     2
  9
$DIMTDEC
 70
     2
  9
$DIMALTU
 70
     2
  9
$DIMALTTD
 70
     3
  9
$DIMTXSTY
  7
Standard
  9
$DIMAUNIT
 70
     0
  9
$DIMADEC
 70
     2
  9
$DIMALTRND
 40
0.0
  9
$DIMAZIN
 70
     0
  9
$DIMDSEP
 70
    44
  9
$DIMATFIT
 70
     3
  9
$DIMFRAC
 70
     0
  9
$DIMLDRBLK
  1

  9
$DIMLUNIT
 70
     2
  9
$DIMLWD
 70
    -2
  9
$DIMLWE
 70
    -2
  9
$DIMTMOVE
 70
     0
  9
$LUNITS
 70
     2
  9
$LUPREC
 70
     2
  9
$SKETCHINC
 40
1.0
  9
$FILLETRAD
 40
10.0
  9
$AUNITS
 70
     0
  9
$AUPREC
 70
     2
  9
$MENU
  1
.
  9
$ELEVATION
 40
0.0
  9
$PELEVATION
 40
0.0
  9
$THICKNESS
 40
0.0
  9
$LIMCHECK
 70
     0
  9
$CHAMFERA
 40
0.0
  9
$CHAMFERB
 40
0.0
  9
$CHAMFERC
 40
0.0
  9
$CHAMFERD
 40
0.0
  9
$SKPOLY
 70
     0
  9
$TDCREATE
 40
2460390.355138866
  9
$TDUCREATE
 40
2460390.230138866
  9
$TDUPDATE
 40
2460390.355139062
  9
$TDUUPDATE
 40
2460390.230139062
  9
$TDINDWG
 40
0.0000000116
  9
$TDUSRTIMER
 40
0.0000000116
  9
$USRTIMER
 70
     1
  9
$ANGBASE
 50
0.0
  9
$ANGDIR
 70
     0
  9
$PDMODE
 70
     0
  9
$PDSIZE
 40
-1.0
  9
$PLINEWID
 40
0.0
  9
$SPLFRAME
 70
     0
  9
$SPLINETYPE
 70
     6
  9
$SPLINESEGS
 70
     8
  9
$HANDSEED
  5
10F
  9
$SURFTAB1
 70
     6
  9
$SURFTAB2
 70
     6
  9
$SURFTYPE
 70
     6
  9
$SURFU
 70
     6
  9
$SURFV
 70
     6
  9
$UCSBASE
  2

  9
$UCSNAME
  2

  9
$UCSORG
 10
0.0
 20
0.0
 30
0.0
  9
$UCSXDIR
 10
1.0
 20
0.0
 30
0.0
  9
$UCSYDIR
 10
0.0
 20
1.0
 30
0.0
  9
$UCSORTHOREF
  2

  9
$UCSORTHOVIEW
 70
     0
  9
$UCSORGTOP
 10
0.0
 20
0.0
 30
0.0
  9
$UCSORGBOTTOM
 10
0.0
 20
0.0
 30
0.0
  9
$UCSORGLEFT
 10
0.0
 20
0.0
 30
0.0
  9
$UCSORGRIGHT
 10
0.0
 20
0.0
 30
0.0
  9
$UCSORGFRONT
 10
0.0
 20
0.0
 30
0.0
  9
$UCSORGBACK
 10
0.0
 20
0.0
 30
0.0
  9
$PUCSBASE
  2

  9
$PUCSNAME
  2

  9
$PUCSORG
 10
0.0
 20
0.0
 30
0.0
  9
$PUCSXDIR
 10
1.0
 20
0.0
 30
0.0
  9
$PUCSYDIR
 10
0.0
 20
1.0
 30
0.0
  9
$PUCSORTHOREF
  2

  9
$PUCSORTHOVIEW
 70
     0
  9
$PUCSORGTOP
 10
0.0
 20
0.0
 30
0.0
  9
$PUCSORGBOTTOM
 10
0.0
 20
0.0
 30
0.0
  9
$PUCSORGLEFT
 10
0.0
 20
0.0
 30
0.0
  9
$PUCSORGRIGHT
 10
0.0
 20
0.0
 30
0.0
  9
$PUCSORGFRONT
 10
0.0
 20
0.0
 30
0.0
  9
$PUCSORGBACK
 10
0.0
 20
0.0
 30
0.0
  9
$USERI1
 70
     0
  9
$USERI2
 70
     0
  9
$USERI3
 70
     0
  9
$USERI4
 70
     0
  9
$USERI5
 70
     0
  9
$USERR1
 40
0.0
  9
$USERR2
 40
0.0
  9
$USERR3
 40
0.0
  9
$USERR4
 40
0.0
  9
$USERR5
 40
0.0
  9
$WORLDVIEW
 70
     1
  9
$SHADEDGE
 70
     3
  9
$SHADEDIF
 70
    70
  9
$TILEMODE
 70
     1
  9
$MAXACTVP
 70
    64
  9
$PINSBASE
 10
0.0
 20
0.0
 30
0.0
  9
$PLIMCHECK
 70
     0
  9
$PEXTMIN
 10
1.0000000000E+20
 20
1.0000000000E+20
 30
1.0000000000E+20
  9
$PEXTMAX
 10
-1.0000000000E+20
 20
-1.0000000000E+20
 30
-1.0000000000E+20
  9
$PLIMMIN
 10
0.0
 20
0.0
  9
$PLIMMAX
 10
420.0
 20
297.0
  9
$UNITMODE
 70
     0
  9
$VISRETAIN
 70
     1
  9
$PLINEGEN
 70
     0
  9
$PSLTSCALE
 70
     1
  9
$TREEDEPTH
 70
  3020
  9
$CMLSTYLE
  2
Standard
  9
$CMLJUST
 70
     0
  9
$CMLSCALE
 40
20.0
  9
$PROXYGRAPHICS
 70
     1
  9
$MEASUREMENT
 70
     1
  9
$CELWEIGHT
370
    -1
  9
$ENDCAPS
280
     0
  9
$JOINSTYLE
280
     0
  9
$LWDISPLAY
290
     1
  9
$INSUNITS
 70
     4
  9
$HYPERLINKBASE
  1

  9
$STYLESHEET
  1

  9
$XEDIT
290
     1
  9
$CEPSNTYPE
380
     0
  9
$PSTYLEMODE
290
     1
  9
$FINGERPRINTGUID
  2
{00629099-da51-49cb-97f0-69cbacdfec8a}
  9
$VERSIONGUID
  2
{FAEB1C32-E019-11D5-929B-00C0DF256EC4}
  9
$EXTNAMES
290
     1
  9
$PSVPSCALE
 40
0.0
  9
$OLESTARTUP
290
     0
  0
ENDSEC
  0
SECTION
  2
CLASSES
  0
CLASS
  1
ACDBDICTIONARYWDFLT
  2
AcDbDictionaryWithDefault
  3
ObjectDBX Classes
 90
        0
280
     0
281
     0
  0
CLASS
  1
VISUALSTYLE
  2
AcDbVisualStyle
  3
ObjectDBX Classes
 90
     4095
280
     0
281
     0
  0
CLASS
  1
MATERIAL
  2
AcDbMaterial
  3
ObjectDBX Classes
 90
     1153
280
     0
281
     0
  0
CLASS
  1
SCALE
  2
AcDbScale
  3
ObjectDBX Classes
 90
     1153
280
     0
281
     0
  0
CLASS
  1
TABLESTYLE
  2
AcDbTableStyle
  3
ObjectDBX Classes
 90
     4095
280
     0
281
     0
  0
CLASS
  1
MLEADERSTYLE
  2
AcDbMLeaderStyle
  3
ACDB_MLEADERSTYLE_CLASS
 90
     4095
280
     0
281
     0
  0
CLASS
  1
SUN
  2
AcDbSun
  3
SCENEOE
 90
     1153
280
     0
281
     0
  0
CLASS
  1
ACDBPLACEHOLDER
  2
AcDbPlaceHolder
  3
ObjectDBX Classes
 90
        0
280
     0
281
     0
  0
CLASS
  1
LAYOUT
  2
AcDbLayout
  3
ObjectDBX Classes
 90
        0
280
     0
281
     0
  0
ENDSEC
  0
SECTION
  2
TABLES
  0
TABLE
  2
VPORT
  5
8
330
0
100
AcDbSymbolTable
 70
     1
  0
VPORT
  5
29
330
8
100
AcDbSymbolTableRecord
100
AcDbViewportTableRecord
  2
*Active
 70
     0
 10
0.0
 20
0.0
 11
1.0
 21
1.0
 12
139.7
 22
107.95
 13
0.0
 23
0.0
 14
10.0
 24
10.0
 15
10.0
 25
10.0
 16
0.0
 26
0.0
 36
1.0
 17
0.0
 27
0.0
 37
0.0
 40
215.9
 41
1.2941176471
 42
50.0
 43
0.0
 44
0.0
 50
0.0
 51
0.0
 71
     0
 72
  2000
 73
     1
 74
     3
 75
     0
 76
     0
 77
     0
 78
     0
281
     0
 65
     1
110
0.0
120
0.0
130
0.0
111
1.0
121
0.0
131
0.0
112
0.0
122
1.0
132
0.0
 79
     0
146
0.0
  0
ENDTAB
  0
TABLE
  2
LTYPE
  5
5
330
0
100
AcDbSymbolTable
 70
     6
  0
LTYPE
  5
14
330
5
100
AcDbSymbolTableRecord
100
AcDbLinetypeTableRecord
  2
ByBlock
 70
     0
  3

 72
    65
 73
     0
 40
0.0
  0
LTYPE
  5
15
330
5
100
AcDbSymbolTableRecord
100
AcDbLinetypeTableRecord
  2
ByLayer
 70
     0
  3

 72
    65
 73
     0
 40
0.0
  0
LTYPE
  5
16
330
5
100
AcDbSymbolTableRecord
100
AcDbLinetypeTableRecord
  2
Continuous
 70
     0
  3
Solid line
 72
    65
 73
     0
 40
0.0
  0
LTYPE
  5
6E
330
5
100
AcDbSymbolTableRecord
100
AcDbLinetypeTableRecord
  2
HIDDEN
 70
     0
  3
Hidden __ __ __ __ __ __ __ __ __ __ __ __ __ __
 72
    65
 73
     2
 40
1.905
 49
1.27
 74
     0
 49
-0.635
 74
     0
  0
LTYPE
  5
6F
330
5
100
AcDbSymbolTableRecord
100
AcDbLinetypeTableRecord
  2
PHANTOM
 70
     0
  3
Phantom ______  __  __  ______  __  __  ______
 72
    65
 73
     6
 40
12.7
 49
6.35
 74
     0
 49
-1.27
 74
     0
 49
1.27
 74
     0
 49
-1.27
 74
     0
 49
1.27
 74
     0
 49
-1.27
 74
     0
  0
LTYPE
  5
70
330
5
100
AcDbSymbolTableRecord
100
AcDbLinetypeTableRecord
  2
CENTER
 70
     0
  3
Center ____ _ ____ _ ____ _ ____ _ ____ _ ____
 72
    65
 73
     4
 40
10.16
 49
6.35
 74
     0
 49
-1.27
 74
     0
 49
1.27
 74
     0
 49
-1.27
 74
     0
  0
LTYPE
  5
71
330
5
100
AcDbSymbolTableRecord
100
AcDbLinetypeTableRecord
  2
CENTERX2
 70
     0
  3
Center (2x) ________  __  ________  __  _____
 72
    65
 73
     4
 40
20.32
 49
12.7
 74
     0
 49
-2.54
 74
     0
 49
2.54
 74
     0
 49
-2.54
 74
     0
  0
LTYPE
  5
72
330
5
100
AcDbSymbolTableRecord
100
AcDbLinetypeTableRecord
  2
DOT2
 70
     0
  3
Dot (.5x) ........................................
 72
    65
 73
     2
 40
0.635
 49
0.0
 74
     0
 49
-0.635
 74
     0
  0
ENDTAB
  0
TABLE
  2
LAYER
  5
2
330
0
100
AcDbSymbolTable
 70
    17
  0
LAYER
  5
10
330
2
100
AcDbSymbolTableRecord
100
AcDbLayerTableRecord
  2
0
 70
     0
 62
     7
  6
Continuous
370
    -3
390
F
  0
LAYER
  5
73
330
2
100
AcDbSymbolTableRecord
100
AcDbLayerTableRecord
  2
FORMAT
 70
     0
 62
     7
  6
Continuous
370
    -3
390
F
  0
LAYER
  5
74
330
2
100
AcDbSymbolTableRecord
100
AcDbLayerTableRecord
  2
YARDIMCI_GEOMETRI
 70
     0
 62
    -6
  6
Continuous
290
     0
370
    -3
390
F
  0
LAYER
  5
75
330
2
100
AcDbSymbolTableRecord
100
AcDbLayerTableRecord
  2
SAYFA_CERCEVESI
 70
     0
 62
     7
  6
Continuous
370
    25
390
F
  0
LAYER
  5
76
330
2
100
AcDbSymbolTableRecord
100
AcDbLayerTableRecord
  2
ANTET
 70
     0
 62
     7
  6
Continuous
370
    -3
390
F
  0
LAYER
  5
77
330
2
100
AcDbSymbolTableRecord
100
AcDbLayerTableRecord
  2
OLCU
 70
     0
 62
   150
  6
Continuous
370
    -3
390
F
  0
LAYER
  5
78
330
2
100
AcDbSymbolTableRecord
100
AcDbLayerTableRecord
  2
METIN
 70
     0
 62
    96
  6
Continuous
370
    -3
390
F
  0
LAYER
  5
79
330
2
100
AcDbSymbolTableRecord
100
AcDbLayerTableRecord
  2
BALON
 70
     0
 62
     5
  6
Continuous
370
    -3
390
F
  0
LAYER
  5
7A
330
2
100
AcDbSymbolTableRecord
100
AcDbLayerTableRecord
  2
VURGU
 70
     0
 62
     7
  6
Continuous
370
    -3
390
F
  0
LAYER
  5
7B
330
2
100
AcDbSymbolTableRecord
100
AcDbLayerTableRecord
  2
SILIK
 70
     0
 62
     7
  6
Continuous
370
    -3
390
F
  0
LAYER
  5
7C
330
2
100
AcDbSymbolTableRecord
100
AcDbLayerTableRecord
  2
MODEL
 70
     0
 62
     7
  6
Continuous
370
    -3
390
F
  0
LAYER
  5
7D
330
2
100
AcDbSymbolTableRecord
100
AcDbLayerTableRecord
  2
DETAYLANDıRMA
 70
     0
 62
   190
  6
Continuous
370
    -3
390
F
  0
LAYER
  5
7E
330
2
100
AcDbSymbolTableRecord
100
AcDbLayerTableRecord
  2
TOLERANS
 70
     0
 62
   230
  6
Continuous
370
    -3
390
F
  0
LAYER
  5
7F
330
2
100
AcDbSymbolTableRecord
100
AcDbLayerTableRecord
  2
MERKEZ_CIZGILERI
 70
     0
 62
    30
  6
Continuous
370
    -3
390
F
  0
LAYER
  5
80
330
2
100
AcDbSymbolTableRecord
100
AcDbLayerTableRecord
  2
KESIT-DETAY_CIZGILERI
 70
     0
 62
     7
  6
Continuous
370
    -3
390
F
  0
LAYER
  5
81
330
2
100
AcDbSymbolTableRecord
100
AcDbLayerTableRecord
  2
\U+041E\U+0421\U+0415\U+0412\U+042B\U+0415
 70
     0
 62
     7
  6
Continuous
370
    -3
390
F
  0
LAYER
  5
82
330
2
100
AcDbSymbolTableRecord
100
AcDbLayerTableRecord
  2
\U+0412\U+041E\U+0414\U+042F\U+041D\U+042B\U+0415_\U+0417\U+041D\U+0410\U+041A\U+0418
 70
     0
 62
    11
  6
Continuous
370
    -3
390
F
  0
ENDTAB
  0
TABLE
  2
STYLE
  5
3
330
0
100
AcDbSymbolTable
 70
     1
  0
STYLE
  5
11
330
3
100
AcDbSymbolTableRecord
100
AcDbTextStyleTableRecord
  2
Standard
 70
     0
 40
0.0
 41
1.0
 50
0.0
 71
     0
 42
3.5
  3
txt
  4

  0
ENDTAB
  0
TABLE
  2
VIEW
  5
6
330
0
100
AcDbSymbolTable
 70
     0
  0
ENDTAB
  0
TABLE
  2
UCS
  5
7
330
0
100
AcDbSymbolTable
 70
     0
  0
ENDTAB
  0
TABLE
  2
APPID
  5
9
330
0
100
AcDbSymbolTable
 70
     1
  0
APPID
  5
12
330
9
100
AcDbSymbolTableRecord
100
AcDbRegAppTableRecord
  2
ACAD
 70
     0
  0
ENDTAB
  0
TABLE
  2
DIMSTYLE
  5
A
330
0
100
AcDbSymbolTable
 70
     1
100
AcDbDimStyleTable
  0
DIMSTYLE
105
27
330
A
100
AcDbSymbolTableRecord
100
AcDbDimStyleTableRecord
  2
ISO-25
 70
     0
 41
2.5
 42
0.625
 43
3.75
 44
1.25
 73
     0
 74
     0
 77
     1
 78
     8
140
2.5
141
2.5
143
0.0393700787
147
0.625
171
     3
172
     1
178
     0
271
     2
272
     2
274
     3
278
    44
283
     0
284
     8
340
11
  0
ENDTAB
  0
TABLE
  2
BLOCK_RECORD
  5
1
330
0
100
AcDbSymbolTable
 70
     4
  0
BLOCK_RECORD
  5
1F
330
1
100
AcDbSymbolTableRecord
100
AcDbBlockTableRecord
  2
*Model_Space
340
22
  0
BLOCK_RECORD
  5
1B
330
1
100
AcDbSymbolTableRecord
100
AcDbBlockTableRecord
  2
*Paper_Space
340
1E
  0
BLOCK_RECORD
  5
23
330
1
100
AcDbSymbolTableRecord
100
AcDbBlockTableRecord
  2
*Paper_Space0
340
26
  0
BLOCK_RECORD
  5
8C
330
1
100
AcDbSymbolTableRecord
100
AcDbBlockTableRecord
  2
SW_CENTERMARKSYMBOL_0
340
0
102
{BLKREFS
331
97
102
}
  0
BLOCK_RECORD
  5
DE
330
1
100
AcDbSymbolTableRecord
100
AcDbBlockTableRecord
  2
SW_CENTERMARKSYMBOL_1
340
0
102
{BLKREFS
331
E9
102
}
  0
BLOCK_RECORD
  5
EA
330
1
100
AcDbSymbolTableRecord
100
AcDbBlockTableRecord
  2
SW_CENTERMARKSYMBOL_2
340
0
102
{BLKREFS
331
F5
102
}
  0
ENDTAB
  0
ENDSEC
  0
SECTION
  2
BLOCKS
  0
BLOCK
  5
20
330
1F
100
AcDbEntity
  8
0
100
AcDbBlockBegin
  2
*Model_Space
 70
     0
 10
0.0
 20
0.0
 30
0.0
  3
*Model_Space
  1

  0
ENDBLK
  5
21
330
1F
100
AcDbEntity
  8
0
100
AcDbBlockEnd
  0
BLOCK
  5
1C
330
1B
100
AcDbEntity
 67
     1
  8
0
100
AcDbBlockBegin
  2
*Paper_Space
 70
     0
 10
0.0
 20
0.0
 30
0.0
  3
*Paper_Space
  1

  0
ENDBLK
  5
1D
330
1B
100
AcDbEntity
 67
     1
  8
0
100
AcDbBlockEnd
  0
BLOCK
  5
24
330
23
100
AcDbEntity
  8
0
100
AcDbBlockBegin
  2
*Paper_Space0
 70
     0
 10
0.0
 20
0.0
 30
0.0
  3
*Paper_Space0
  1

  0
ENDBLK
  5
25
330
23
100
AcDbEntity
  8
0
100
AcDbBlockEnd
  0
BLOCK
  5
8D
330
8C
100
AcDbEntity
  8
0
100
AcDbBlockBegin
  2
SW_CENTERMARKSYMBOL_0
 70
     0
 10
0.0
 20
0.0
 30
0.0
  3
SW_CENTERMARKSYMBOL_0
  1

  0
LINE
  5
8F
330
8C
100
AcDbEntity
  8
FORMAT
 62
     0
100
AcDbLine
 10
0.0
 20
0.0
 30
0.0
 11
0.0
 21
2.5
 31
0.0
  0
LINE
  5
90
330
8C
100
AcDbEntity
  8
FORMAT
 62
     0
100
AcDbLine
 10
0.0
 20
0.0
 30
0.0
 11
-2.5
 21
0.0
 31
0.0
  0
LINE
  5
91
330
8C
100
AcDbEntity
  8
FORMAT
 62
     0
100
AcDbLine
 10
0.0
 20
0.0
 30
0.0
 11
0.0
 21
-2.5
 31
0.0
  0
LINE
  5
92
330
8C
100
AcDbEntity
  8
FORMAT
 62
     0
100
AcDbLine
 10
0.0
 20
0.0
 30
0.0
 11
2.5
 21
0.0
 31
0.0
  0
LINE
  5
93
330
8C
100
AcDbEntity
  8
FORMAT
 62
     0
100
AcDbLine
 10
0.0
 20
5.0
 30
0.0
 11
0.0
 21
203.2
 31
0.0
  0
LINE
  5
94
330
8C
100
AcDbEntity
  8
FORMAT
 62
     0
100
AcDbLine
 10
-5.0
 20
0.0
 30
0.0
 11
-203.2
 21
0.0
 31
0.0
  0
LINE
  5
95
330
8C
100
AcDbEntity
  8
FORMAT
 62
     0
100
AcDbLine
 10
0.0
 20
-5.0
 30
0.0
 11
0.0
 21
-203.2
 31
0.0
  0
LINE
  5
96
330
8C
100
AcDbEntity
  8
FORMAT
 62
     0
100
AcDbLine
 10
5.0
 20
0.0
 30
0.0
 11
203.2
 21
0.0
 31
0.0
  0
ENDBLK
  5
8E
330
8C
100
AcDbEntity
  8
0
100
AcDbBlockEnd
  0
BLOCK
  5
DF
330
DE
100
AcDbEntity
  8
0
100
AcDbBlockBegin
  2
SW_CENTERMARKSYMBOL_1
 70
     0
 10
0.0
 20
0.0
 30
0.0
  3
SW_CENTERMARKSYMBOL_1
  1

  0
LINE
  5
E1
330
DE
100
AcDbEntity
  8
FORMAT
 62
     0
100
AcDbLine
 10
0.0
 20
0.0
 30
0.0
 11
0.0
 21
2.5
 31
0.0
  0
LINE
  5
E2
330
DE
100
AcDbEntity
  8
FORMAT
 62
     0
100
AcDbLine
 10
0.0
 20
0.0
 30
0.0
 11
-2.5
 21
0.0
 31
0.0
  0
LINE
  5
E3
330
DE
100
AcDbEntity
  8
FORMAT
 62
     0
100
AcDbLine
 10
0.0
 20
0.0
 30
0.0
 11
0.0
 21
-2.5
 31
0.0
  0
LINE
  5
E4
330
DE
100
AcDbEntity
  8
FORMAT
 62
     0
100
AcDbLine
 10
0.0
 20
0.0
 30
0.0
 11
2.5
 21
0.0
 31
0.0
  0
LINE
  5
E5
330
DE
100
AcDbEntity
  8
FORMAT
 62
     0
100
AcDbLine
 10
0.0
 20
5.0
 30
0.0
 11
0.0
 21
9.5
 31
0.0
  0
LINE
  5
E6
330
DE
100
AcDbEntity
  8
FORMAT
 62
     0
100
AcDbLine
 10
-5.0
 20
0.0
 30
0.0
 11
-9.5
 21
0.0
 31
0.0
  0
LINE
  5
E7
330
DE
100
AcDbEntity
  8
FORMAT
 62
     0
100
AcDbLine
 10
0.0
 20
-5.0
 30
0.0
 11
0.0
 21
-9.5
 31
0.0
  0
LINE
  5
E8
330
DE
100
AcDbEntity
  8
FORMAT
 62
     0
100
AcDbLine
 10
5.0
 20
0.0
 30
0.0
 11
9.5
 21
0.0
 31
0.0
  0
ENDBLK
  5
E0
330
DE
100
AcDbEntity
  8
0
100
AcDbBlockEnd
  0
BLOCK
  5
EB
330
EA
100
AcDbEntity
  8
0
100
AcDbBlockBegin
  2
SW_CENTERMARKSYMBOL_2
 70
     0
 10
0.0
 20
0.0
 30
0.0
  3
SW_CENTERMARKSYMBOL_2
  1

  0
LINE
  5
ED
330
EA
100
AcDbEntity
  8
FORMAT
 62
     0
100
AcDbLine
 10
0.0
 20
0.0
 30
0.0
 11
0.0
 21
2.5
 31
0.0
  0
LINE
  5
EE
330
EA
100
AcDbEntity
  8
FORMAT
 62
     0
100
AcDbLine
 10
0.0
 20
0.0
 30
0.0
 11
-2.5
 21
0.0
 31
0.0
  0
LINE
  5
EF
330
EA
100
AcDbEntity
  8
FORMAT
 62
     0
100
AcDbLine
 10
0.0
 20
0.0
 30
0.0
 11
0.0
 21
-2.5
 31
0.0
  0
LINE
  5
F0
330
EA
100
AcDbEntity
  8
FORMAT
 62
     0
100
AcDbLine
 10
0.0
 20
0.0
 30
0.0
 11
2.5
 21
0.0
 31
0.0
  0
LINE
  5
F1
330
EA
100
AcDbEntity
  8
FORMAT
 62
     0
100
AcDbLine
 10
0.0
 20
5.0
 30
0.0
 11
0.0
 21
9.5
 31
0.0
  0
LINE
  5
F2
330
EA
100
AcDbEntity
  8
FORMAT
 62
     0
100
AcDbLine
 10
-5.0
 20
0.0
 30
0.0
 11
-9.5
 21
0.0
 31
0.0
  0
LINE
  5
F3
330
EA
100
AcDbEntity
  8
FORMAT
 62
     0
100
AcDbLine
 10
0.0
 20
-5.0
 30
0.0
 11
0.0
 21
-9.5
 31
0.0
  0
LINE
  5
F4
330
EA
100
AcDbEntity
  8
FORMAT
 62
     0
100
AcDbLine
 10
5.0
 20
0.0
 30
0.0
 11
9.5
 21
0.0
 31
0.0
  0
ENDBLK
  5
EC
330
EA
100
AcDbEntity
  8
0
100
AcDbBlockEnd
  0
ENDSEC
  0
SECTION
  2
ENTITIES
  0
LINE
  5
83
330
1F
100
AcDbEntity
  8
0
  6
Continuous
 62
     7
370
    25
100
AcDbLine
 10
137.6070913462
 20
325.957944356
 30
0.0
 11
137.6070913462
 21
340.1549519231
 31
0.0
  0
LINE
  5
84
330
1F
100
AcDbEntity
  8
0
  6
Continuous
 62
     7
370
    25
100
AcDbLine
 10
123.6070913462
 20
340.1549519231
 30
0.0
 11
123.6070913462
 21
325.9555744045
 31
0.0
  0
CIRCLE
  5
85
330
1F
100
AcDbEntity
  8
0
  6
Continuous
 62
     7
370
    25
100
AcDbCircle
 10
130.6070913462
 20
95.8949519231
 30
0.0
 40
230.0
  0
ARC
  5
86
330
1F
100
AcDbEntity
  8
0
  6
Continuous
 62
     7
370
    25
100
AcDbCircle
 10
130.6070913462
 20
95.8949519231
 30
0.0
 40
230.9999999999999
100
AcDbArc
 50
91.7365015759
 51
180.0
  0
ARC
  5
87
330
1F
100
AcDbEntity
  8
0
  6
Continuous
 62
     7
370
    25
100
AcDbCircle
 10
130.6070913462
 20
95.8949519231
 30
0.0
 40
230.9999999999999
100
AcDbArc
 50
180.0
 51
88.2634984241
  0
SPLINE
  5
88
330
1F
100
AcDbEntity
  8
0
  6
Continuous
 62
     7
370
    25
100
AcDbSpline
210
0.0
220
0.0
230
1.0
 70
     8
 71
     3
 72
    14
 73
    10
 74
     0
 42
0.00000001
 43
0.00000001
 40
0.0
 40
0.0
 40
0.0
 40
0.0
 40
0.1431296979633674
 40
0.2862596486247176
 40
0.4293790568014963
 40
0.5724882850225459
 40
0.7156136031038144
 40
0.8587420859783444
 40
1.0
 40
1.0
 40
1.0
 40
1.0
 10
135.5611170006482
 20
325.9415998400706
 30
0.0
 10
134.950251934464
 20
325.946603778181
 30
0.0
 10
133.7285207236027
 20
325.9566116632361
 30
0.0
 10
131.3940967034097
 20
325.9679591400633
 30
0.0
 10
129.0122500359492
 20
325.9654565506474
 30
0.0
 10
126.7953336910412
 20
325.9512813658275
 30
0.0
 10
125.0265765818266
 20
325.9360219828365
 30
0.0
 10
123.8328798081994
 20
325.931222450422
 30
0.0
 10
123.6853613358552
 20
325.9474927594276
 30
0.0
 10
123.6120872555532
 20
325.9555744044561
 30
0.0
  0
SPLINE
  5
89
330
1F
100
AcDbEntity
  8
0
  6
Continuous
 62
     7
370
    25
100
AcDbSpline
210
0.0
220
0.0
230
1.0
 70
     8
 71
     3
 72
    10
 73
     6
 74
     0
 42
0.00000001
 43
0.00000001
 40
0.0
 40
0.0
 40
0.0
 40
0.0
 40
0.3006321247254035
 40
0.7300348507163895
 40
1.0
 40
1.0
 40
1.0
 40
1.0
 10
137.5236683054734
 20
325.9579443559537
 30
0.0
 10
137.5184729554968
 20
325.9507691434521
 30
0.0
 10
137.5058569167151
 20
325.9333453395512
 30
0.0
 10
136.7231144337672
 20
325.9332909578443
 30
0.0
 10
135.884740360785
 20
325.9392857657806
 30
0.0
 10
135.5611170006482
 20
325.9415998400706
 30
0.0
  0
CIRCLE
  5
8A
330
1F
100
AcDbEntity
  8
0
  6
Continuous
 62
     7
370
    25
100
AcDbCircle
 10
130.6070913462
 20
95.8949519231
 30
0.0
 40
200.7
  0
LINE
  5
8B
330
1F
100
AcDbEntity
  8
0
  6
Continuous
 62
     7
370
    25
100
AcDbLine
 10
137.6070913462
 20
340.1549519231
 30
0.0
 11
123.6070913462
 21
340.1549519231
 31
0.0
  0
INSERT
  5
97
330
1F
100
AcDbEntity
  8
FORMAT
 62
     7
100
AcDbBlockReference
  2
SW_CENTERMARKSYMBOL_0
 10
130.6070913462
 20
95.8949519231
 30
0.0
  0
LWPOLYLINE
  5
98
330
1F
100
AcDbEntity
  8
0
  6
Continuous
 62
     7
370
    25
100
AcDbPolyline
 90
        9
 70
   128
 43
0.0
 10
713.4732897294
 20
325.9675702263
 10
712.8374951944
 20
325.958642612
 10
712.2017012614
 20
325.9496722336
 10
711.5659079331
 20
325.9406590914
 10
710.9301152124
 20
325.9316031853
 10
710.2943231024
 20
325.9225045154
 10
709.6585316057
 20
325.9133630817
 10
709.0227407253
 20
325.9041788842
 10
708.3869504642
 20
325.8949519231
  0
ARC
  5
99
330
1F
100
AcDbEntity
  8
0
  6
Continuous
 62
     7
370
    25
100
AcDbCircle
 10
845.8869504642
 20
-9126.730048077
 30
0.0
 40
9453.625000000093
100
AcDbArc
 50
90.0
 51
90.7187739611
  0
ARC
  5
9A
330
1F
100
AcDbEntity
  8
0
  6
Continuous
 62
     7
370
    25
100
AcDbCircle
 10
845.8869504642
 20
9318.5199519232
 30
0.0
 40
9453.625000000091
100
AcDbArc
 50
269.1666215364
 51
270.0
  0
LINE
  5
9B
330
1F
100
AcDbEntity
  8
0
  6
Continuous
 62
     7
370
    25
100
AcDbLine
 10
845.8869504642
 20
-135.1050480769
 30
0.0
 11
870.8869504642
 21
-135.1050480769
 31
0.0
  0
LINE
  5
9C
330
1F
100
AcDbEntity
  8
0
  6
Continuous
 62
     7
370
    25
100
AcDbLine
 10
870.8869504642
 20
326.8949519231
 30
0.0
 11
845.8869504642
 21
326.8949519231
 31
0.0
  0
ARC
  5
9D
330
1F
100
AcDbEntity
  8
0
  6
Continuous
 62
     7
370
    25
100
AcDbCircle
 10
870.8869504642
 20
-9126.730048077
 30
0.0
 40
9453.625000000093
100
AcDbArc
 50
89.2812320079
 51
90.0
  0
LWPOLYLINE
  5
9E
330
1F
100
AcDbEntity
  8
0
  6
Continuous
 62
     7
370
    25
100
AcDbPolyline
 90
        9
 70
   128
 43
0.0
 10
1008.3869504642
 20
325.8949519231
 10
1007.7509557902
 20
325.9041818439
 10
1007.1149604966
 20
325.9133689735
 10
1006.4789645864
 20
325.9225133119
 10
1005.8429680624
 20
325.931614859
 10
1005.2069709274
 20
325.9406736148
 10
1004.5709731844
 20
325.9496895792
 10
1003.9349748362
 20
325.9586627522
 10
1003.2989758857
 20
325.9675931337
  0
ARC
  5
9F
330
1F
100
AcDbEntity
  8
0
  6
Continuous
 62
     7
370
    25
100
AcDbCircle
 10
870.8869504642
 20
9318.5199519232
 30
0.0
 40
9453.625000000091
100
AcDbArc
 50
270.0
 51
270.8333784636
  0
LINE
  5
A0
330
1F
100
AcDbEntity
  8
0
  6
Continuous
 62
     7
370
    25
100
AcDbLine
 10
727.3869504642
 20
326.1482936925
 30
0.0
 11
727.3869504642
 21
340.1549519231
 31
0.0
  0
LINE
  5
A1
330
1F
100
AcDbEntity
  8
0
  6
Continuous
 62
     7
370
    25
100
AcDbLine
 10
713.3869504642
 20
340.1549519231
 30
0.0
 11
713.3869504642
 21
325.9649755141
 31
0.0
  0
LINE
  5
A2
330
1F
100
AcDbEntity
  8
0
  6
Continuous
 62
     7
370
    25
100
AcDbLine
 10
1003.3869504642
 20
325.9649450225
 30
0.0
 11
1003.3869504642
 21
340.1549519231
 31
0.0
  0
LINE
  5
A3
330
1F
100
AcDbEntity
  8
0
  6
Continuous
 62
     7
370
    25
100
AcDbLine
 10
989.3869504642
 20
340.1549519231
 30
0.0
 11
989.3869504642
 21
326.1483484264
 31
0.0
  0
LINE
  5
A4
330
1F
100
AcDbEntity
  8
0
  6
Continuous
 62
     7
370
    25
100
AcDbLine
 10
708.3869504642
 20
95.8949519231
 30
0.0
 11
708.3869504642
 21
325.8949519231
 31
0.0
  0
LINE
  5
A5
330
1F
100
AcDbEntity
  8
0
  6
Continuous
 62
     7
370
    25
100
AcDbLine
 10
708.3869504642
 20
-134.1050480769
 30
0.0
 11
708.3869504642
 21
95.8949519231
 31
0.0
  0
SPLINE
  5
A6
330
1F
100
AcDbEntity
  8
0
  6
Continuous
 62
     7
370
    25
100
AcDbSpline
210
0.0
220
0.0
230
1.0
 70
     8
 71
     3
 72
    17
 73
    13
 74
     0
 42
0.00000001
 43
0.00000001
 40
0.0
 40
0.0
 40
0.0
 40
0.0
 40
0.0676882677421225
 40
0.1750038509808466
 40
0.2823764799909895
 40
0.3898317021188456
 40
0.4972999859478148
 40
0.6047134374025738
 40
0.7120846338588911
 40
0.8194678782391799
 40
0.9268782729313162
 40
0.9999999999999999
 40
0.9999999999999999
 40
0.9999999999999999
 40
0.9999999999999999
 10
727.2945069185955
 20
326.1482856729193
 30
0.0
 10
727.300090825001
 20
326.1485094559086
 30
0.0
 10
727.3145276714009
 20
326.149088033057
 30
0.0
 10
726.4477268644887
 20
326.1126389380166
 30
0.0
 10
724.8976451688892
 20
326.0560920207045
 30
0.0
 10
722.8061837764573
 20
325.9963160430931
 30
0.0
 10
720.4493789292351
 20
325.9521835356468
 30
0.0
 10
718.0856396326685
 20
325.9323932540192
 30
0.0
 10
715.9745735419793
 20
325.9356539266455
 30
0.0
 10
714.3901936113153
 20
325.9508325472343
 30
0.0
 10
713.4795616391052
 20
325.9647941389856
 30
0.0
 10
713.4750595166759
 20
325.9649193137405
 30
0.0
 10
713.4732360020332
 20
325.9649700138274
 30
0.0
  0
LINE
  5
A7
330
1F
100
AcDbEntity
  8
0
  6
Continuous
 62
     7
370
    25
100
AcDbLine
 10
1008.3869504642
 20
95.8949519231
 30
0.0
 11
1008.3869504642
 21
325.8949519231
 31
0.0
  0
LINE
  5
A8
330
1F
100
AcDbEntity
  8
0
  6
Continuous
 62
     7
370
    25
100
AcDbLine
 10
1008.3869504642
 20
-134.1050480769
 30
0.0
 11
1008.3869504642
 21
95.8949519231
 31
0.0
  0
SPLINE
  5
A9
330
1F
100
AcDbEntity
  8
0
  6
Continuous
 62
     7
370
    25
100
AcDbSpline
210
0.0
220
0.0
230
1.0
 70
     8
 71
     3
 72
    17
 73
    13
 74
     0
 42
0.00000001
 43
0.00000001
 40
0.0
 40
0.0
 40
0.0
 40
0.0
 40
0.0717432094244377
 40
0.1791391726343995
 40
0.2865472104398127
 40
0.3939576232564317
 40
0.5013417376757384
 40
0.6087110158899341
 40
0.7161194247671326
 40
0.8235846157378227
 40
0.9310425936817089
 40
1.0
 40
1.0
 40
1.0
 40
1.0
 10
1003.298890414257
 20
325.9649404016419
 30
0.0
 10
1003.299088472623
 20
325.9649241853091
 30
0.0
 10
1003.299583014367
 20
325.9648836939448
 30
0.0
 10
1002.400061946479
 20
325.9510483579774
 30
0.0
 10
1000.82379862435
 20
325.9358049367466
 30
0.0
 10
998.7172153419131
 20
325.9323029632257
 30
0.0
 10
996.3558303246245
 20
325.9517662805017
 30
0.0
 10
993.9984496531828
 20
325.9955877437528
 30
0.0
 10
991.9019804696823
 20
326.0552385248774
 30
0.0
 10
990.3420714509525
 20
326.112000932612
 30
0.0
 10
989.4640353345711
 20
326.1488851653741
 30
0.0
 10
989.474191705116
 20
326.1484925094034
 30
0.0
 10
989.4781616364988
 20
326.1483390276795
 30
0.0
  0
LINE
  5
AA
330
1F
100
AcDbEntity
  8
0
  6
Continuous
 62
     7
370
    25
100
AcDbLine
 10
727.3869504642
 20
340.1549519231
 30
0.0
 11
713.3869504642
 21
340.1549519231
 31
0.0
  0
LINE
  5
AB
330
1F
100
AcDbEntity
  8
0
  6
Continuous
 62
     7
370
    25
100
AcDbLine
 10
1003.3869504642
 20
340.1549519231
 30
0.0
 11
989.3869504642
 21
340.1549519231
 31
0.0
  0
LINE
  5
AC
330
1F
100
AcDbEntity
  8
0
  6
Continuous
 62
     1
370
    25
100
AcDbLine
 10
845.8869504642
 20
95.8949519231
 30
0.0
 11
845.8869504642
 21
326.8949519231
 31
0.0
  0
LINE
  5
AD
330
1F
100
AcDbEntity
  8
0
  6
Continuous
 62
     1
370
    25
100
AcDbLine
 10
845.8869504642
 20
-135.1050480769
 30
0.0
 11
845.8869504642
 21
95.8949519231
 31
0.0
  0
LINE
  5
AE
330
1F
100
AcDbEntity
  8
0
  6
Continuous
 62
     1
370
    25
100
AcDbLine
 10
870.8869504642
 20
95.8949519231
 30
0.0
 11
870.8869504642
 21
326.8949519231
 31
0.0
  0
LINE
  5
AF
330
1F
100
AcDbEntity
  8
0
  6
Continuous
 62
     1
370
    25
100
AcDbLine
 10
870.8869504642
 20
-135.1050480769
 30
0.0
 11
870.8869504642
 21
95.8949519231
 31
0.0
  0
ARC
  5
B0
330
1F
100
AcDbEntity
  8
0
  6
Continuous
 62
     7
370
    25
100
AcDbCircle
 10
9353.2320913462
 20
683.0592391682
 30
0.0
 40
9453.625000000091
100
AcDbArc
 50
180.0
 51
180.8333784636
  0
ARC
  5
B1
330
1F
100
AcDbEntity
  8
0
  6
Continuous
 62
     7
370
    25
100
AcDbCircle
 10
-9092.0179086539
 20
683.0592391682
 30
0.0
 40
9453.625000000091
100
AcDbArc
 50
359.1666215364
 51
0.0
  0
LINE
  5
B2
330
1F
100
AcDbEntity
  8
0
  6
Continuous
 62
     7
370
    25
100
AcDbLine
 10
361.6070913462
 20
683.0592391682
 30
0.0
 11
361.6070913462
 21
708.0592391682
 31
0.0
  0
LINE
  5
B3
330
1F
100
AcDbEntity
  8
0
  6
Continuous
 62
     7
370
    25
100
AcDbLine
 10
-100.3929086538
 20
708.0592391682
 30
0.0
 11
-100.3929086538
 21
683.0592391682
 31
0.0
  0
ARC
  5
B4
330
1F
100
AcDbEntity
  8
0
  6
Continuous
 62
     7
370
    25
100
AcDbCircle
 10
9353.2320913462
 20
708.0592391682
 30
0.0
 40
9453.625000000091
100
AcDbArc
 50
179.1666215364
 51
180.0
  0
ARC
  5
B5
330
1F
100
AcDbEntity
  8
0
  6
Continuous
 62
     7
370
    25
100
AcDbCircle
 10
-9092.0179086539
 20
708.0592391682
 30
0.0
 40
9453.625000000091
100
AcDbArc
 50
0.0
 51
0.8333784636
  0
LINE
  5
B6
330
1F
100
AcDbEntity
  8
0
  6
Continuous
 62
     7
370
    25
100
AcDbLine
 10
360.6070913462
 20
545.5592391682
 30
0.0
 11
-99.3929086538
 21
545.5592391682
 31
0.0
  0
LINE
  5
B7
330
1F
100
AcDbEntity
  8
0
  6
Continuous
 62
     7
370
    25
100
AcDbLine
 10
360.6070913462
 20
845.5592391682
 30
0.0
 11
-99.3929086538
 21
845.5592391682
 31
0.0
  0
LINE
  5
B8
330
1F
100
AcDbEntity
  8
0
  6
Continuous
 62
     1
370
    25
100
AcDbLine
 10
361.6070913462
 20
683.0592391682
 30
0.0
 11
-100.3929086538
 21
683.0592391682
 31
0.0
  0
LINE
  5
B9
330
1F
100
AcDbEntity
  8
0
  6
Continuous
 62
     1
370
    25
100
AcDbLine
 10
361.6070913462
 20
708.0592391682
 30
0.0
 11
-100.3929086538
 21
708.0592391682
 31
0.0
  0
ARC
  5
BA
330
1F
100
AcDbEntity
  8
0
  6
Continuous
 62
     7
370
    25
100
AcDbCircle
 10
-507.6598315926
 20
9318.5199519232
 30
0.0
 40
9453.625000000091
100
AcDbArc
 50
270.0
 51
270.8333784636
  0
ARC
  5
BB
330
1F
100
AcDbEntity
  8
0
  6
Continuous
 62
     7
370
    25
100
AcDbCircle
 10
-507.6598315926
 20
-9126.730048077
 30
0.0
 40
9453.625000000093
100
AcDbArc
 50
89.281224536
 51
90.0
  0
LWPOLYLINE
  5
BC
330
1F
100
AcDbEntity
  8
0
  6
Continuous
 62
     7
370
    25
100
AcDbPolyline
 90
        9
 70
   128
 43
0.0
 10
-370.1598315926
 20
325.8949519231
 10
-370.7956025156
 20
325.9041786042
 10
-371.4313740578
 20
325.9133625243
 10
-372.0671462162
 20
325.9225036832
 10
-372.702918988
 20
325.9316020809
 10
-373.3386923704
 20
325.9406577174
 10
-373.9744663603
 20
325.9496705927
 10
-374.610240955
 20
325.9586407066
 10
-375.2460161516
 20
325.9675680592
  0
LINE
  5
BD
330
1F
100
AcDbEntity
  8
0
  6
Continuous
 62
     7
370
    25
100
AcDbLine
 10
-507.6598315926
 20
326.8949519231
 30
0.0
 11
-532.6598315926
 21
326.8949519231
 31
0.0
  0
LINE
  5
BE
330
1F
100
AcDbEntity
  8
0
  6
Continuous
 62
     7
370
    25
100
AcDbLine
 10
-532.6598315926
 20
-135.1050480769
 30
0.0
 11
-507.6598315926
 21
-135.1050480769
 31
0.0
  0
ARC
  5
BF
330
1F
100
AcDbEntity
  8
0
  6
Continuous
 62
     7
370
    25
100
AcDbCircle
 10
-532.6598315926
 20
9318.5199519232
 30
0.0
 40
9453.625000000091
100
AcDbArc
 50
269.1666215364
 51
270.0
  0
LWPOLYLINE
  5
C0
330
1F
100
AcDbEntity
  8
0
  6
Continuous
 62
     7
370
    25
100
AcDbPolyline
 90
        9
 70
   128
 43
0.0
 10
-665.0717048815
 20
325.9675952647
 10
-665.7077228487
 20
325.9586646258
 10
-666.3437402136
 20
325.9496911928
 10
-666.9797569733
 20
325.9406749659
 10
-667.6157731248
 20
325.931615945
 10
-668.2517886654
 20
325.9225141303
 10
-668.8878035922
 20
325.9133695217
 10
-669.5238179022
 20
325.9041821193
 10
-670.1598315926
 20
325.8949519231
  0
ARC
  5
C1
330
1F
100
AcDbEntity
  8
0
  6
Continuous
 62
     7
370
    25
100
AcDbCircle
 10
-532.6598315926
 20
-9126.730048077
 30
0.0
 40
9453.625000000093
100
AcDbArc
 50
90.0
 51
90.7187664876
  0
LINE
  5
C2
330
1F
100
AcDbEntity
  8
0
  6
Continuous
 62
     7
370
    25
100
AcDbLine
 10
-375.1598315926
 20
325.9649755141
 30
0.0
 11
-375.1598315926
 21
340.1549519231
 31
0.0
  0
LINE
  5
C3
330
1F
100
AcDbEntity
  8
0
  6
Continuous
 62
     7
370
    25
100
AcDbLine
 10
-389.1598315926
 20
340.1549519231
 30
0.0
 11
-389.1598315926
 21
326.1482936925
 31
0.0
  0
LINE
  5
C4
330
1F
100
AcDbEntity
  8
0
  6
Continuous
 62
     7
370
    25
100
AcDbLine
 10
-651.1598315926
 20
326.1483484264
 30
0.0
 11
-651.1598315926
 21
340.1549519231
 31
0.0
  0
LINE
  5
C5
330
1F
100
AcDbEntity
  8
0
  6
Continuous
 62
     7
370
    25
100
AcDbLine
 10
-665.1598315926
 20
340.1549519231
 30
0.0
 11
-665.1598315926
 21
325.9649450225
 31
0.0
  0
LINE
  5
C6
330
1F
100
AcDbEntity
  8
0
  6
Continuous
 62
     7
370
    25
100
AcDbLine
 10
-370.1598315926
 20
325.8949519231
 30
0.0
 11
-370.1598315926
 21
-134.1050480769
 31
0.0
  0
SPLINE
  5
C7
330
1F
100
AcDbEntity
  8
0
  6
Continuous
 62
     7
370
    25
100
AcDbSpline
210
0.0
220
0.0
230
1.0
 70
     8
 71
     3
 72
    10
 73
     6
 74
     0
 42
0.00000001
 43
0.00000001
 40
0.0
 40
0.0
 40
0.0
 40
0.0
 40
0.4220650681297152
 40
0.8441401204441423
 40
0.9999999999999999
 40
0.9999999999999999
 40
0.9999999999999999
 40
0.9999999999999999
 10
-387.0425331774531
 20
326.0708064432453
 30
0.0
 10
-387.5427061620288
 20
326.0888760249853
 30
0.0
 10
-388.5430639630513
 20
326.1250156159111
 30
0.0
 10
-389.1800188430684
 20
326.1531486945028
 30
0.0
 10
-389.0913110890328
 20
326.1493185899859
 30
0.0
 10
-389.0673880155219
 20
326.1482856715797
 30
0.0
  0
SPLINE
  5
C8
330
1F
100
AcDbEntity
  8
0
  6
Continuous
 62
     7
370
    25
100
AcDbSpline
210
0.0
220
0.0
230
1.0
 70
     8
 71
     3
 72
    15
 73
    11
 74
     0
 42
0.00000001
 43
0.00000001
 40
0.0
 40
0.0
 40
0.0
 40
0.0
 40
0.0459283791454793
 40
0.18983531226762
 40
0.3337509642391758
 40
0.4776804282977835
 40
0.6215859804426067
 40
0.7654569325723876
 40
0.9093539236507862
 40
1.0
 40
1.0
 40
1.0
 40
1.0
 10
-375.2461011373506
 20
325.9649702686218
 30
0.0
 10
-375.2217325644284
 20
325.9653621448251
 30
0.0
 10
-375.1210101845782
 20
325.9669818828345
 30
0.0
 10
-375.7542224229778
 20
325.9565916117944
 30
0.0
 10
-377.0879440276171
 20
325.9406879131325
 30
0.0
 10
-379.0484693440552
 20
325.9312751196148
 30
0.0
 10
-381.3469844117516
 20
325.9420097083902
 30
0.0
 10
-383.7317633393022
 20
325.97767889406
 30
0.0
 10
-385.6947940632908
 20
326.0267060008753
 30
0.0
 10
-386.6668525467214
 20
326.0585134988386
 30
0.0
 10
-387.0425331774531
 20
326.0708064432453
 30
0.0
  0
LINE
  5
C9
330
1F
100
AcDbEntity
  8
0
  6
Continuous
 62
     7
370
    25
100
AcDbLine
 10
-670.1598315926
 20
325.8949519231
 30
0.0
 11
-670.1598315926
 21
-134.1050480769
 31
0.0
  0
SPLINE
  5
CA
330
1F
100
AcDbEntity
  8
0
  6
Continuous
 62
     7
370
    25
100
AcDbSpline
210
0.0
220
0.0
230
1.0
 70
     8
 71
     3
 72
    10
 73
     6
 74
     0
 42
0.00000001
 43
0.00000001
 40
0.0
 40
0.0
 40
0.0
 40
0.0
 40
0.4287975395835749
 40
0.8575958362166987
 40
1.0
 40
1.0
 40
1.0
 40
1.0
 10
-663.1052971737911
 20
325.9415998400706
 30
0.0
 10
-663.59728773647
 20
325.9464301866894
 30
0.0
 10
-664.5812697304457
 20
325.9560908884551
 30
0.0
 10
-665.1925250628897
 20
325.9669364242668
 30
0.0
 10
-665.0958575386327
 20
325.9653385430793
 30
0.0
 10
-665.0717577510603
 20
325.9649401818149
 30
0.0
  0
SPLINE
  5
CB
330
1F
100
AcDbEntity
  8
0
  6
Continuous
 62
     7
370
    25
100
AcDbSpline
210
0.0
220
0.0
230
1.0
 70
     8
 71
     3
 72
    15
 73
    11
 74
     0
 42
0.00000001
 43
0.00000001
 40
0.0
 40
0.0
 40
0.0
 40
0.0
 40
0.051205785077599
 40
0.1942347292383151
 40
0.3373078144924833
 40
0.480496630500431
 40
0.6237351336286361
 40
0.766916603076541
 40
0.910026759491539
 40
1.0
 40
1.0
 40
1.0
 40
1.0
 10
-651.2510427258886
 20
326.1483390293391
 30
0.0
 10
-651.2265466755316
 20
326.1493832901353
 30
0.0
 10
-651.1336278051094
 20
326.1533443994653
 30
0.0
 10
-651.7920883202567
 20
326.1251246333866
 30
0.0
 10
-653.1526124708018
 20
326.07310245719
 30
0.0
 10
-655.1293052118037
 20
326.0117593471498
 30
0.0
 10
-657.4369633391443
 20
325.9621001394146
 30
0.0
 10
-659.8208712313635
 20
325.9353640833644
 30
0.0
 10
-661.7735776656152
 20
325.9329988560145
 30
0.0
 10
-662.73440518237
 20
325.9392044136425
 30
0.0
 10
-663.1052971737911
 20
325.9415998400706
 30
0.0
  0
LINE
  5
CC
330
1F
100
AcDbEntity
  8
0
  6
Continuous
 62
     7
370
    25
100
AcDbLine
 10
-375.1598315926
 20
340.1549519231
 30
0.0
 11
-389.1598315926
 21
340.1549519231
 31
0.0
  0
LINE
  5
CD
330
1F
100
AcDbEntity
  8
0
  6
Continuous
 62
     7
370
    25
100
AcDbLine
 10
-651.1598315926
 20
340.1549519231
 30
0.0
 11
-665.1598315926
 21
340.1549519231
 31
0.0
  0
LINE
  5
CE
330
1F
100
AcDbEntity
  8
0
  6
Continuous
 62
     1
370
    25
100
AcDbLine
 10
-507.6598315926
 20
326.8949519231
 30
0.0
 11
-507.6598315926
 21
-135.1050480769
 31
0.0
  0
LINE
  5
CF
330
1F
100
AcDbEntity
  8
0
  6
Continuous
 62
     1
370
    25
100
AcDbLine
 10
-532.6598315926
 20
326.8949519231
 30
0.0
 11
-532.6598315926
 21
-135.1050480769
 31
0.0
  0
ARC
  5
D0
330
1F
100
AcDbEntity
  8
0
  6
Continuous
 62
     7
370
    25
100
AcDbCircle
 10
-9092.0179086539
 20
-532.3253232059
 30
0.0
 40
9453.625000000091
100
AcDbArc
 50
0.0
 51
0.8333784636
  0
ARC
  5
D1
330
1F
100
AcDbEntity
  8
0
  6
Continuous
 62
     7
370
    25
100
AcDbCircle
 10
9353.2320913462
 20
-532.3253232059
 30
0.0
 40
9453.625000000091
100
AcDbArc
 50
179.1666215364
 51
180.0
  0
LINE
  5
D2
330
1F
100
AcDbEntity
  8
0
  6
Continuous
 62
     7
370
    25
100
AcDbLine
 10
-100.3929086538
 20
-532.3253232059
 30
0.0
 11
-100.3929086538
 21
-557.3253232059
 31
0.0
  0
LINE
  5
D3
330
1F
100
AcDbEntity
  8
0
  6
Continuous
 62
     7
370
    25
100
AcDbLine
 10
361.6070913462
 20
-557.3253232059
 30
0.0
 11
361.6070913462
 21
-532.3253232059
 31
0.0
  0
ARC
  5
D4
330
1F
100
AcDbEntity
  8
0
  6
Continuous
 62
     7
370
    25
100
AcDbCircle
 10
-9092.0179086539
 20
-557.3253232059
 30
0.0
 40
9453.625000000091
100
AcDbArc
 50
359.1666215364
 51
0.0
  0
ARC
  5
D5
330
1F
100
AcDbEntity
  8
0
  6
Continuous
 62
     7
370
    25
100
AcDbCircle
 10
9353.2320913462
 20
-557.3253232059
 30
0.0
 40
9453.625000000091
100
AcDbArc
 50
180.0
 51
180.8333784636
  0
CIRCLE
  5
D6
330
1F
100
AcDbEntity
  8
0
  6
Continuous
 62
     7
370
    25
100
AcDbCircle
 10
130.6070913462
 20
-406.8253232059
 30
0.0
 40
7.0
  0
CIRCLE
  5
D7
330
1F
100
AcDbEntity
  8
0
  6
Continuous
 62
     7
370
    25
100
AcDbCircle
 10
130.6070913462
 20
-406.8253232059
 30
0.0
 40
5.0
  0
CIRCLE
  5
D8
330
1F
100
AcDbEntity
  8
0
  6
Continuous
 62
     7
370
    25
100
AcDbCircle
 10
130.6070913462
 20
-682.8253232059
 30
0.0
 40
7.0
  0
CIRCLE
  5
D9
330
1F
100
AcDbEntity
  8
0
  6
Continuous
 62
     7
370
    25
100
AcDbCircle
 10
130.6070913462
 20
-682.8253232059
 30
0.0
 40
5.0
  0
LINE
  5
DA
330
1F
100
AcDbEntity
  8
0
  6
Continuous
 62
     7
370
    25
100
AcDbLine
 10
-99.3929086538
 20
-394.8253232059
 30
0.0
 11
360.6070913462
 21
-394.8253232059
 31
0.0
  0
LINE
  5
DB
330
1F
100
AcDbEntity
  8
0
  6
Continuous
 62
     7
370
    25
100
AcDbLine
 10
-99.3929086538
 20
-694.8253232059
 30
0.0
 11
360.6070913462
 21
-694.8253232059
 31
0.0
  0
LINE
  5
DC
330
1F
100
AcDbEntity
  8
0
  6
Continuous
 62
     1
370
    25
100
AcDbLine
 10
-100.3929086538
 20
-532.3253232059
 30
0.0
 11
361.6070913462
 21
-532.3253232059
 31
0.0
  0
LINE
  5
DD
330
1F
100
AcDbEntity
  8
0
  6
Continuous
 62
     1
370
    25
100
AcDbLine
 10
-100.3929086538
 20
-557.3253232059
 30
0.0
 11
361.6070913462
 21
-557.3253232059
 31
0.0
  0
INSERT
  5
E9
330
1F
100
AcDbEntity
  8
FORMAT
 62
     7
100
AcDbBlockReference
  2
SW_CENTERMARKSYMBOL_1
 10
130.6070913462
 20
-406.8253232059
 30
0.0
  0
INSERT
  5
F5
330
1F
100
AcDbEntity
  8
FORMAT
 62
     7
100
AcDbBlockReference
  2
SW_CENTERMARKSYMBOL_2
 10
130.6070913462
 20
-682.8253232059
 30
0.0
  0
SPLINE
  5
F6
330
1F
100
AcDbEntity
  8
0
  6
Continuous
 62
     7
370
    25
100
AcDbSpline
210
0.0
220
0.0
230
1.0
 70
     8
 71
     3
 72
    10
 73
     6
 74
     0
 42
0.00000001
 43
0.00000001
 40
0.0
 40
0.0
 40
0.0
 40
0.0
 40
0.382349294813388
 40
0.7773197365917051
 40
1.0
 40
1.0
 40
1.0
 40
1.0
 10
675.8113788064312
 20
-345.2287548375276
 30
0.0
 10
663.2825305302688
 20
-352.495146167099
 30
0.0
 10
637.8112633566828
 20
-367.2677885412179
 30
0.0
 10
605.1926650843371
 20
-386.5279301659352
 30
0.0
 10
585.1505382396382
 20
-398.5948911474049
 30
0.0
 10
577.9247939029719
 20
-402.9453663064666
 30
0.0
  0
SPLINE
  5
F7
330
1F
100
AcDbEntity
  8
0
  6
Continuous
 62
     7
370
    25
100
AcDbSpline
210
0.0
220
0.0
230
1.0
 70
     8
 71
     3
 72
    11
 73
     7
 74
     0
 42
0.00000001
 43
0.00000001
 40
0.0
 40
0.0
 40
0.0
 40
0.0
 40
0.1972978629491399
 40
0.5923274573316045
 40
0.9873445570176108
 40
1.0
 40
1.0
 40
1.0
 40
1.0
 10
807.8534293981336
 20
-801.2397009611792
 30
0.0
 10
814.3950134687652
 20
-797.626610650183
 30
0.0
 10
834.0341509716229
 20
-786.7793943396164
 30
0.0
 10
866.5919021801411
 20
-768.3716641966619
 30
0.0
 10
893.0256758506758
 20
-753.3419343184617
 30
0.0
 10
906.3737811248901
 20
-745.5756812550262
 30
0.0
 10
906.7881484602889
 20
-745.3345922373853
 30
0.0
  0
LINE
  5
F8
330
1F
100
AcDbEntity
  8
0
  6
Continuous
 62
     7
370
    25
100
AcDbLine
 10
693.4867124434
 20
-335.0193472285
 30
0.0
 11
675.8090429137
 21
-345.2244486262
 31
0.0
  0
LINE
  5
F9
330
1F
100
AcDbEntity
  8
0
  6
Continuous
 62
     7
370
    25
100
AcDbLine
 10
906.7902701527
 20
-745.3390230461
 30
0.0
 11
924.4679396823
 21
-735.1339216483
 31
0.0
  0
SPLINE
  5
FA
330
1F
100
AcDbEntity
  8
0
  6
Continuous
 62
     7
370
    25
100
AcDbSpline
210
0.0
220
0.0
230
1.0
 70
     8
 71
     3
 72
    11
 73
     7
 74
     0
 42
0.00000001
 43
0.00000001
 40
0.0
 40
0.0
 40
0.0
 40
0.0
 40
0.1972928525817299
 40
0.5923259857978872
 40
0.9873466242087212
 40
1.0
 40
1.0
 40
1.0
 40
1.0
 10
792.4228794364542
 20
-279.1190424220071
 30
0.0
 10
785.8815201717192
 20
-282.7320087638911
 30
0.0
 10
766.2426076402214
 20
-293.5791014086921
 30
0.0
 10
733.685080708756
 20
-311.9867066011851
 30
0.0
 10
707.2513782895213
 20
-327.0163946723885
 30
0.0
 10
693.9033442797102
 20
-334.7826059689991
 30
0.0
 10
693.4890483360958
 20
-335.0236534397407
 30
0.0
  0
SPLINE
  5
FB
330
1F
100
AcDbEntity
  8
0
  6
Continuous
 62
     7
370
    25
100
AcDbSpline
210
0.0
220
0.0
230
1.0
 70
     8
 71
     3
 72
    10
 73
     6
 74
     0
 42
0.00000001
 43
0.00000001
 40
0.0
 40
0.0
 40
0.0
 40
0.0
 40
0.3823451177849193
 40
0.7773134972040645
 40
0.9999999999999999
 40
0.9999999999999999
 40
0.9999999999999999
 40
0.9999999999999999
 10
924.4658179899527
 20
-735.1294908396025
 30
0.0
 10
936.9945948321418
 20
-727.8631409810127
 30
0.0
 10
962.46579059191
 20
-713.0905401087668
 30
0.0
 10
995.0845584913822
 20
-693.8302967763786
 30
0.0
 10
1015.126925282906
 20
-681.7631907796778
 30
0.0
 10
1022.352909723524
 20
-677.4125708612595
 30
0.0
  0
LINE
  5
FC
330
1F
100
AcDbEntity
  8
0
  6
Continuous
 62
     7
370
    25
100
AcDbLine
 10
709.5577554943
 20
-408.5616464467
 30
0.0
 11
709.5577554943
 21
-397.0630861418
 31
0.0
  0
LINE
  5
FD
330
1F
100
AcDbEntity
  8
0
  6
Continuous
 62
     7
370
    25
100
AcDbLine
 10
695.5577554943
 20
-397.0630861418
 30
0.0
 11
695.5577554943
 21
-408.6682927502
 31
0.0
  0
LINE
  5
FE
330
1F
100
AcDbEntity
  8
0
  6
Continuous
 62
     7
370
    25
100
AcDbLine
 10
904.7192271018
 20
-296.0044710594
 30
0.0
 11
904.7192271018
 21
-284.3987667103
 31
0.0
  0
LINE
  5
FF
330
1F
100
AcDbEntity
  8
0
  6
Continuous
 62
     7
370
    25
100
AcDbLine
 10
890.7192271018
 20
-284.3987667103
 30
0.0
 11
890.7192271018
 21
-295.8980626255
 31
0.0
  0
LWPOLYLINE
  5
100
330
1F
100
AcDbEntity
  8
0
  6
Continuous
 62
     7
370
    25
100
AcDbPolyline
 90
      162
 70
   128
 43
0.0
 10
531.4379144471
 20
-507.5228606644
 10
531.5617472509
 20
-500.2669549336
 10
531.9330570854
 20
-493.1650730623
 10
532.5512785069
 20
-486.2280300452
 10
533.4154700661
 20
-479.4663898544
 10
534.524315742
 20
-472.8904493528
 10
535.8761269454
 20
-466.5102226128
 10
537.4688450908
 20
-460.3354256675
 10
539.3000447313
 20
-454.3754617141
 10
541.3669372518
 20
-448.6394067944
 10
543.6663751159
 20
-443.1359959741
 10
546.1948566592
 20
-437.87361004
 10
548.9485314212
 20
-432.8602627378
 10
551.9232060096
 20
-428.1035885685
 10
555.1143504856
 20
-423.6108311623
 10
558.5171052626
 20
-419.3888322476
 10
562.1262885063
 20
-415.4440212323
 10
565.936404026
 20
-411.7824054129
 10
569.9416496442
 20
-408.4095608263
 10
574.1359260326
 20
-405.3306237584
 10
578.512846
 20
-402.5502829226
 10
583.0657442193
 20
-400.0727723193
 10
587.7876873776
 20
-397.9018647885
 10
592.6714847342
 20
-396.0408662642
 10
597.7096990714
 20
-394.4926107403
 10
602.8946580199
 20
-393.2594559545
 10
608.2184657424
 20
-392.3432797981
 10
613.6730149579
 20
-391.7454774563
 10
619.2499992877
 20
-391.4669592835
 10
624.9409259047
 20
-391.5081494169
 10
630.7371284662
 20
-391.8689851307
 10
636.6297803119
 20
-392.5489169316
 10
642.609907905
 20
-393.5469093957
 10
648.6684044976
 20
-394.8614427451
 10
654.7960439988
 20
-396.4905151623
 10
660.9834950244
 20
-398.4316458387
 10
667.2213351071
 20
-400.6818787525
 10
673.5000650454
 20
-403.2377871702
 10
679.8101233692
 20
-406.0954788649
 10
686.1419009006
 20
-409.2506020434
 10
692.4857553869
 20
-412.6983519736
 10
698.8320261841
 20
-416.433478301
 10
705.1710489686
 20
-420.4502930445
 10
711.4931704543
 20
-424.7426792577
 10
717.7887630931
 20
-429.3041003445
 10
724.0482397358
 20
-434.1276100129
 10
730.262068232
 20
-439.2058628533
 10
736.4207859459
 20
-444.5311255244
 10
742.5150141663
 20
-450.0952885296
 10
748.5354723889
 20
-455.8898785663
 10
754.4729924489
 20
-461.9060714298
 10
760.3185324825
 20
-468.1347054507
 10
766.0631906967
 20
-474.5662954468
 10
771.6982189245
 20
-481.1910471675
 10
777.2150359474
 20
-487.9988722087
 10
782.6052405632
 20
-494.9794033757
 10
787.8606243792
 20
-502.1220104711
 10
792.9731843129
 20
-509.4158164825
 10
797.9351347788
 20
-516.8497141463
 10
802.7389195447
 20
-524.4123828627
 10
807.377223239
 20
-532.0923059348
 10
811.8429824901
 20
-539.8777881064
 10
816.1293966834
 20
-547.7569733725
 10
820.2299383171
 20
-555.7178630336
 10
824.1383629426
 20
-563.7483339679
 10
827.848718674
 20
-571.8361570928
 10
831.3553552515
 20
-579.9690159877
 10
834.6529326461
 20
-588.1345256502
 10
837.7364291912
 20
-596.3202513558
 10
840.6011492303
 20
-604.5137275946
 10
843.2427302674
 20
-612.7024770539
 10
845.6571496102
 20
-620.8740296189
 10
847.8407304963
 20
-629.0159413629
 10
849.7901476922
 20
-637.1158134975
 10
851.5024325571
 20
-645.1613112534
 10
852.9749775635
 20
-653.1401826647
 10
854.2055402685
 20
-661.0402772263
 10
855.1922467278
 20
-668.8495643974
 10
855.9335943504
 20
-676.5561519217
 10
856.4284541861
 20
-684.1483039376
 10
856.6760726449
 20
-691.61445885
 10
856.6760726449
 20
-698.9432469366
 10
856.4284541861
 20
-706.1235076618
 10
855.9335943504
 20
-713.1443066731
 10
855.1922467278
 20
-719.9949524516
 10
854.2055402685
 20
-726.6650125938
 10
852.9749775635
 20
-733.1443296984
 10
851.5024325571
 20
-739.4230368342
 10
849.7901476922
 20
-745.491572566
 10
847.8407304963
 20
-751.3406955147
 10
845.6571496102
 20
-756.961498431
 10
843.2427302674
 20
-762.3454217591
 10
840.6011492303
 20
-767.4842666721
 10
837.7364291912
 20
-772.3702075566
 10
834.6529326461
 20
-776.9958039307
 10
831.3553552515
 20
-781.3540117741
 10
827.848718674
 20
-785.4381942551
 10
824.1383629426
 20
-789.2421318376
 10
820.2299383171
 20
-792.760031752
 10
816.1293966834
 20
-795.9865368171
 10
811.8429824901
 20
-798.9167335978
 10
807.377223239
 20
-801.5461598878
 10
802.7389195447
 20
-803.8708115046
 10
797.9351347788
 20
-805.8871483873
 10
792.9731843129
 20
-807.5920999873
 10
787.8606243792
 20
-808.9830699446
 10
782.6052405632
 20
-810.0579400414
 10
777.2150359474
 20
-810.8150734279
 10
771.6982189245
 20
-811.2533171147
 10
766.0631906967
 20
-811.3720037291
 10
760.3185324825
 20
-811.1709525309
 10
754.4729924489
 20
-810.6504696879
 10
748.5354723889
 20
-809.8113478096
 10
742.5150141663
 20
-808.6548647403
 10
736.4207859459
 20
-807.1827816129
 10
730.262068232
 20
-805.3973401671
 10
724.0482397358
 20
-803.3012593358
 10
717.7887630931
 20
-800.8977311044
 10
711.4931704543
 20
-798.1904156498
 10
705.1710489686
 20
-795.183435767
 10
698.8320261841
 20
-791.8813705902
 10
692.4857553869
 20
-788.2892486201
 10
686.1419009006
 20
-784.4125400659
 10
679.8101233692
 20
-780.2571485153
 10
673.5000650454
 20
-775.8294019441
 10
667.2213351071
 20
-771.1360430801
 10
660.9834950244
 20
-766.1842191346
 10
654.7960439988
 20
-760.9814709186
 10
648.6684044976
 20
-755.5357213595
 10
642.609907905
 20
-749.8552634356
 10
636.6297803119
 20
-743.9487475473
 10
630.7371284662
 20
-737.825168344
 10
624.9409259047
 20
-731.4938510267
 10
619.2499992877
 20
-724.9644371475
 10
613.6730149579
 20
-718.2468699265
 10
608.2184657424
 20
-711.3513791105
 10
602.8946580199
 20
-704.2884653947
 10
597.7096990714
 20
-697.0688844317
 10
592.6714847342
 20
-689.7036304523
 10
587.7876873776
 20
-682.2039195234
 10
583.0657442193
 20
-674.5811724677
 10
578.512846
 20
-666.8469974716
 10
574.1359260326
 20
-659.0131724079
 10
569.9416496442
 20
-651.0916268998
 10
565.936404026
 20
-643.0944241547
 10
562.1262885063
 20
-635.033742593
 10
558.5171052626
 20
-626.9218573032
 10
555.1143504856
 20
-618.7711213485
 10
551.9232060096
 20
-610.5939469553
 10
548.9485314212
 20
-602.4027866113
 10
546.1948566592
 20
-594.2101141027
 10
543.6663751159
 20
-586.0284055183
 10
541.3669372518
 20
-577.8701202506
 10
539.3000447313
 20
-569.7476820224
 10
537.4688450908
 20
-561.6734599673
 10
535.8761269454
 20
-553.6597497936
 10
534.524315742
 20
-545.7187550602
 10
533.4154700661
 20
-537.862568592
 10
532.5512785069
 20
-530.1031540651
 10
531.9330570854
 20
-522.452327788
 10
531.5617472509
 20
-514.9217407072
 10
531.4379144471
 20
-507.5228606644
  0
SPLINE
  5
101
330
1F
100
AcDbEntity
  8
0
  6
Continuous
 62
     7
370
    25
100
AcDbSpline
210
0.0
220
0.0
230
1.0
 70
     8
 71
     3
 72
    12
 73
     8
 74
     0
 42
0.00000001
 43
0.00000001
 40
0.0
 40
0.0
 40
0.0
 40
0.0
 40
0.2146280042832971
 40
0.4292563874960862
 40
0.6438689618833418
 40
0.8584662710697836
 40
1.0
 40
1.0
 40
1.0
 40
1.0
 10
702.5638083801701
 20
-412.7098806651809
 30
0.0
 10
701.7770394219666
 20
-412.6615013663096
 30
0.0
 10
700.2035001165051
 20
-412.5647426831527
 30
0.0
 10
698.1007994959791
 20
-411.8600511421784
 30
0.0
 10
696.5313094596166
 20
-410.8366780142688
 30
0.0
 10
695.6404317757912
 20
-409.7134066246778
 30
0.0
 10
695.645086682037
 20
-408.9635433365334
 30
0.0
 10
695.6469366365993
 20
-408.6655323911235
 30
0.0
  0
SPLINE
  5
102
330
1F
100
AcDbEntity
  8
0
  6
Continuous
 62
     7
370
    25
100
AcDbSpline
210
0.0
220
0.0
230
1.0
 70
     8
 71
     3
 72
    13
 73
     9
 74
     0
 42
0.00000001
 43
0.00000001
 40
0.0
 40
0.0
 40
0.0
 40
0.0
 40
0.005667369683863
 40
0.2205141947509154
 40
0.4354355725681868
 40
0.6502713745320082
 40
0.865000175270922
 40
1.0
 40
1.0
 40
1.0
 40
1.0
 10
709.5476217811153
 20
-408.5625879508715
 30
0.0
 10
709.550987099743
 20
-408.5747290077913
 30
0.0
 10
709.68192977133
 20
-409.0471307637104
 30
0.0
 10
709.2100176110933
 20
-410.0135763402039
 30
0.0
 10
708.1035313408377
 20
-411.253864748212
 30
0.0
 10
706.2806685299322
 20
-412.1818403239305
 30
0.0
 10
704.3346987619186
 20
-412.6516125297355
 30
0.0
 10
703.0570121338455
 20
-412.6936526346842
 30
0.0
 10
702.5638083801701
 20
-412.7098806651809
 30
0.0
  0
LWPOLYLINE
  5
103
330
1F
100
AcDbEntity
  8
0
  6
Continuous
 62
     7
370
    25
100
AcDbPolyline
 90
      151
 70
   128
 43
0.0
 10
552.1561431359
 20
-519.4832395026
 10
552.2806278699
 20
-512.6925317248
 10
552.6538636835
 20
-506.0574641706
 10
553.2751957941
 20
-499.5896770029
 10
554.1435341741
 20
-493.3005169184
 10
555.257355463
 20
-487.2010172408
 10
556.6147056396
 20
-481.3018785652
 10
558.2132034507
 20
-475.6134499854
 10
560.0500445878
 20
-470.1457109381
 10
562.1220066075
 20
-464.9082536954
 10
564.4254545842
 20
-459.9102665371
 10
566.9563474875
 20
-455.1605176311
 10
569.7102452713
 20
-450.6673396507
 10
572.6823166631
 20
-446.4386151571
 10
575.8673476397
 20
-442.48176277
 10
579.2597505745
 20
-438.8037241528
 10
582.8535740401
 20
-435.4109518353
 10
586.6425132488
 20
-432.3093978929
 10
590.6199211139
 20
-429.5045035051
 10
594.7788199103
 20
-427.0011894098
 10
599.1119135164
 20
-424.8038472706
 10
603.6116002136
 20
-422.9163319722
 10
608.2699860225
 20
-421.3419548578
 10
613.0788985514
 20
-420.0834779199
 10
618.0299013336
 20
-419.1431089547
 10
623.114308628
 20
-418.5224976889
 10
628.3232006563
 20
-418.2227328855
 10
633.6474392521
 20
-418.2443404338
 10
639.0776838916
 20
-418.5872824269
 10
644.6044080805
 20
-419.2509572279
 10
650.2179160666
 20
-420.2342005259
 10
655.9083598494
 20
-421.5352873778
 10
661.6657564569
 20
-423.1519352352
 10
667.4800054591
 20
-425.0813079485
 10
673.3409066874
 20
-427.3200207424
 10
679.2381781297
 20
-429.8641461538
 10
685.1614739679
 20
-432.7092209223
 10
691.1004027283
 20
-435.8502538199
 10
697.0445455118
 20
-439.2817344078
 10
702.9834742722
 20
-442.9976427028
 10
708.9067701104
 20
-446.9914597391
 10
714.8040415527
 20
-451.2561790046
 10
720.664942781
 20
-455.7843187325
 10
726.4791917832
 20
-460.5679350271
 10
732.2365883907
 20
-465.5986357999
 10
737.9270321735
 20
-470.8675954922
 10
743.5405401596
 20
-476.3655705585
 10
749.0672643485
 20
-482.0829156821
 10
754.497508988
 20
-488.009600697
 10
759.8217475838
 20
-494.1352281838
 10
765.0306396121
 20
-500.4490517103
 10
770.1150469065
 20
-506.9399946847
 10
775.0660496887
 20
-513.5966697872
 10
779.8749622176
 20
-520.4073989479
 10
784.5333480264
 20
-527.3602338335
 10
789.0330347237
 20
-534.442976809
 10
793.3661283298
 20
-541.6432023365
 10
797.5250271262
 20
-548.9482787738
 10
801.5024349913
 20
-556.3453905345
 10
805.2913742
 20
-563.821560571
 10
808.8851976656
 20
-571.3636731406
 10
812.2776006004
 20
-578.9584968152
 10
815.462631577
 20
-586.5927076932
 10
818.4347029688
 20
-594.2529127746
 10
821.1886007526
 20
-601.9256734568
 10
823.7194936559
 20
-609.5975291103
 10
826.0229416326
 20
-617.2550206933
 10
828.0949036523
 20
-624.8847143637
 10
829.9317447894
 20
-632.473225046
 10
831.5302426004
 20
-640.0072399141
 10
832.8875927771
 20
-647.4735417457
 10
834.001414066
 20
-654.8590321103
 10
834.869752446
 20
-662.1507543483
 10
835.4910845566
 20
-669.3359163011
 10
835.8643203702
 20
-676.401912753
 10
835.9888051042
 20
-683.3363475454
 10
835.8643203702
 20
-690.1270553232
 10
835.4910845566
 20
-696.7621228774
 10
834.869752446
 20
-703.229910045
 10
834.001414066
 20
-709.5190701296
 10
832.8875927771
 20
-715.6185698072
 10
831.5302426004
 20
-721.5177084828
 10
829.9317447894
 20
-727.2061370626
 10
828.0949036523
 20
-732.6738761099
 10
826.0229416326
 20
-737.9113333526
 10
823.7194936559
 20
-742.9093205109
 10
821.1886007526
 20
-747.6590694169
 10
818.4347029688
 20
-752.1522473972
 10
815.462631577
 20
-756.3809718908
 10
812.2776006004
 20
-760.337824278
 10
808.8851976656
 20
-764.0158628952
 10
805.2913742
 20
-767.4086352127
 10
801.5024349913
 20
-770.5101891551
 10
797.5250271262
 20
-773.3150835429
 10
793.3661283298
 20
-775.8183976382
 10
789.0330347237
 20
-778.0157397774
 10
784.5333480264
 20
-779.9032550758
 10
779.8749622176
 20
-781.4776321902
 10
775.0660496887
 20
-782.7361091281
 10
770.1150469065
 20
-783.6764780933
 10
765.0306396121
 20
-784.2970893591
 10
759.8217475838
 20
-784.5968541625
 10
754.497508988
 20
-784.5752466142
 10
749.0672643485
 20
-784.2323046211
 10
743.5405401596
 20
-783.56862982
 10
737.9270321735
 20
-782.5853865221
 10
732.2365883907
 20
-781.2842996702
 10
726.4791917832
 20
-779.6676518128
 10
720.664942781
 20
-777.7382790995
 10
714.8040415527
 20
-775.4995663056
 10
708.9067701104
 20
-772.9554408942
 10
702.9834742722
 20
-770.1103661257
 10
697.0445455118
 20
-766.969333228
 10
691.1004027283
 20
-763.5378526402
 10
685.1614739679
 20
-759.8219443452
 10
679.2381781297
 20
-755.8281273089
 10
673.3409066874
 20
-751.5634080434
 10
667.480005459
 20
-747.0352683154
 10
661.6657564569
 20
-742.2516520209
 10
655.9083598494
 20
-737.2209512481
 10
650.2179160666
 20
-731.9519915558
 10
644.6044080805
 20
-726.4540164895
 10
639.0776838916
 20
-720.7366713659
 10
633.6474392521
 20
-714.809986351
 10
628.3232006563
 20
-708.6843588642
 10
623.114308628
 20
-702.3705353377
 10
618.0299013336
 20
-695.8795923633
 10
613.0788985514
 20
-689.2229172608
 10
608.2699860225
 20
-682.4121881
 10
603.6116002136
 20
-675.4593532145
 10
599.1119135164
 20
-668.376610239
 10
594.7788199103
 20
-661.1763847115
 10
590.6199211138
 20
-653.8713082742
 10
586.6425132488
 20
-646.4741965135
 10
582.8535740401
 20
-638.998026477
 10
579.2597505745
 20
-631.4559139074
 10
575.8673476397
 20
-623.8610902328
 10
572.6823166631
 20
-616.2268793548
 10
569.7102452713
 20
-608.5666742734
 10
566.9563474875
 20
-600.8939135912
 10
564.4254545842
 20
-593.2220579377
 10
562.1220066075
 20
-585.5645663547
 10
560.0500445878
 20
-577.9348726843
 10
558.2132034507
 20
-570.3463620019
 10
556.6147056396
 20
-562.8123471339
 10
555.257355463
 20
-555.3460453023
 10
554.1435341741
 20
-547.9605549377
 10
553.2751957941
 20
-540.6688326997
 10
552.6538636835
 20
-533.4836707469
 10
552.2806278699
 20
-526.4176742949
 10
552.1561431359
 20
-519.4832395026
  0
LWPOLYLINE
  5
104
330
1F
100
AcDbEntity
  8
0
  6
Continuous
 62
     7
370
    25
100
AcDbPolyline
 90
       19
 70
   128
 43
0.0
 10
792.4026376978
 20
-279.0851110601
 10
795.1977785753
 20
-277.6115555459
 10
799.9197217335
 20
-275.4406480151
 10
804.8035190902
 20
-273.5796494908
 10
809.8417334274
 20
-272.0313939669
 10
815.0266923759
 20
-270.798239181
 10
820.3505000984
 20
-269.8820630247
 10
825.8050493139
 20
-269.2842606829
 10
831.3820336437
 20
-269.0057425101
 10
837.0729602606
 20
-269.0469326435
 10
842.8691628221
 20
-269.4077683573
 10
848.7618146678
 20
-270.0877001582
 10
854.7419422609
 20
-271.0856926223
 10
860.8004388536
 20
-272.4002259717
 10
866.9280783548
 20
-274.0292983889
 10
873.1155293804
 20
-275.9704290653
 10
879.3533694631
 20
-278.2206619791
 10
885.6320994013
 20
-280.7765703968
 10
891.0319931383
 20
-283.2043387749
  0
LWPOLYLINE
  5
105
330
1F
100
AcDbEntity
  8
0
  6
Continuous
 62
     7
370
    25
100
AcDbPolyline
 90
       62
 70
   128
 43
0.0
 10
904.7192271018
 20
-290.294587401
 10
910.9640605401
 20
-293.9722615276
 10
917.3030833246
 20
-297.9890762711
 10
923.6252048103
 20
-302.2814624843
 10
929.9207974491
 20
-306.8428835711
 10
936.1802740918
 20
-311.6663932394
 10
942.394102588
 20
-316.7446460799
 10
948.5528203019
 20
-322.069908751
 10
954.6470485223
 20
-327.6340717562
 10
960.6675067449
 20
-333.4286617929
 10
966.6050268048
 20
-339.4448546563
 10
972.4505668385
 20
-345.6734886773
 10
978.1952250527
 20
-352.1050786734
 10
983.8302532805
 20
-358.7298303941
 10
989.3470703034
 20
-365.5376554353
 10
994.7372749191
 20
-372.5181866023
 10
999.9926587352
 20
-379.6607936977
 10
1005.1052186689
 20
-386.954599709
 10
1010.0671691347
 20
-394.3884973729
 10
1014.8709539007
 20
-401.9511660893
 10
1019.509257595
 20
-409.6310891614
 10
1023.9750168461
 20
-417.416571333
 10
1028.2614310394
 20
-425.2957565991
 10
1032.361972673
 20
-433.2566462602
 10
1036.2703972986
 20
-441.2871171945
 10
1039.98075303
 20
-449.3749403193
 10
1043.4873896075
 20
-457.5077992143
 10
1046.784967002
 20
-465.6733088767
 10
1049.8684635472
 20
-473.8590345824
 10
1052.7331835863
 20
-482.0525108212
 10
1055.3747646234
 20
-490.2412602805
 10
1057.7891839661
 20
-498.4128128455
 10
1059.9727648522
 20
-506.5547245895
 10
1061.9221820481
 20
-514.6545967241
 10
1063.634466913
 20
-522.70009448
 10
1065.1070119195
 20
-530.6789658913
 10
1066.3375746244
 20
-538.5790604529
 10
1067.3242810838
 20
-546.388347624
 10
1068.0656287063
 20
-554.0949351483
 10
1068.560488542
 20
-561.6870871642
 10
1068.8081070009
 20
-569.1532420766
 10
1068.8081070009
 20
-576.4820301631
 10
1068.560488542
 20
-583.6622908884
 10
1068.0656287063
 20
-590.6830898997
 10
1067.3242810838
 20
-597.5337356782
 10
1066.3375746244
 20
-604.2037958204
 10
1065.1070119195
 20
-610.683112925
 10
1063.634466913
 20
-616.9618200608
 10
1061.9221820481
 20
-623.0303557925
 10
1059.9727648522
 20
-628.8794787413
 10
1057.7891839661
 20
-634.5002816575
 10
1055.3747646234
 20
-639.8842049857
 10
1052.7331835863
 20
-645.0230498986
 10
1049.8684635472
 20
-649.9089907832
 10
1046.784967002
 20
-654.5345871573
 10
1043.4873896075
 20
-658.8927950007
 10
1039.98075303
 20
-662.9769774817
 10
1036.2703972986
 20
-666.7809150642
 10
1032.361972673
 20
-670.2988149786
 10
1028.2614310394
 20
-673.5253200437
 10
1023.9750168461
 20
-676.4555168244
 10
1022.3717573925
 20
-677.4465393814
  0
SPLINE
  5
106
330
1F
100
AcDbEntity
  8
0
  6
Continuous
 62
     7
370
    25
100
AcDbSpline
210
0.0
220
0.0
230
1.0
 70
     8
 71
     3
 72
    12
 73
     8
 74
     0
 42
0.00000001
 43
0.00000001
 40
0.0
 40
0.0
 40
0.0
 40
0.0
 40
0.2128985264095511
 40
0.4258020890525483
 40
0.6385792145673517
 40
0.8512787498439771
 40
1.0
 40
1.0
 40
1.0
 40
1.0
 10
897.8134106605911
 20
-299.9396944877915
 30
0.0
 10
897.0258801253991
 20
-299.8860561429966
 30
0.0
 10
895.4508004255408
 20
-299.7787781845615
 30
0.0
 10
893.3337961184095
 20
-299.0748761006287
 30
0.0
 10
891.7406693105306
 20
-298.0657141875191
 30
0.0
 10
890.8174179962256
 20
-296.9487881664752
 30
0.0
 10
890.8069712593845
 20
-296.2020974849716
 30
0.0
 10
890.8026725255382
 20
-295.8948413001893
 30
0.0
  0
SPLINE
  5
107
330
1F
100
AcDbEntity
  8
0
  6
Continuous
 62
     7
370
    25
100
AcDbSpline
210
0.0
220
0.0
230
1.0
 70
     8
 71
     3
 72
    12
 73
     8
 74
     0
 42
0.00000001
 43
0.00000001
 40
0.0
 40
0.0
 40
0.0
 40
0.0
 40
0.2142416161946183
 40
0.4307278445498587
 40
0.647162021913001
 40
0.8636353713142791
 40
1.0
 40
1.0
 40
1.0
 40
1.0
 10
904.7151131582318
 20
-296.004075348939
 30
0.0
 10
904.6410736266612
 20
-296.4566275635487
 30
0.0
 10
904.492218850398
 20
-297.3664733881247
 30
0.0
 10
903.2961335030096
 20
-298.5662414537863
 30
0.0
 10
901.52664054502
 20
-299.4547307129578
 30
0.0
 10
899.5833576191857
 20
-299.897410730574
 30
0.0
 10
898.3067812118937
 20
-299.9279079421506
 30
0.0
 10
897.8134106605911
 20
-299.9396944877915
 30
0.0
  0
LWPOLYLINE
  5
108
330
1F
100
AcDbEntity
  8
0
  6
Continuous
 62
     7
370
    25
100
AcDbPolyline
 90
       29
 70
   128
 43
0.0
 10
707.5075029626
 20
-394.2056577505
 10
708.4848248889
 20
-394.9131370804
 10
709.1649388064
 20
-395.7284238337
 10
709.5137409635
 20
-396.6106361281
 10
709.5137409635
 20
-397.5155361556
 10
709.1649388064
 20
-398.39774845
 10
708.4848248889
 20
-399.2130352033
 10
707.5075029626
 20
-399.9205145332
 10
706.2819800299
 20
-400.484710472
 10
704.869708928
 20
-400.8773318795
 10
703.341506827
 20
-401.0786910787
 10
701.7740041616
 20
-401.0786910787
 10
700.2458020606
 20
-400.8773318795
 10
698.8335309587
 20
-400.484710472
 10
697.608008026
 20
-399.9205145332
 10
696.6306860997
 20
-399.2130352033
 10
695.9505721821
 20
-398.39774845
 10
695.601770025
 20
-397.5155361556
 10
695.601770025
 20
-396.6106361281
 10
695.9505721821
 20
-395.7284238337
 10
696.6306860997
 20
-394.9131370804
 10
697.608008026
 20
-394.2056577505
 10
698.8335309587
 20
-393.6414618117
 10
700.2458020606
 20
-393.2488404042
 10
701.7740041616
 20
-393.047481205
 10
703.341506827
 20
-393.047481205
 10
704.869708928
 20
-393.2488404042
 10
706.2819800299
 20
-393.6414618117
 10
707.5075029626
 20
-394.2056577505
  0
LWPOLYLINE
  5
109
330
1F
100
AcDbEntity
  8
0
  6
Continuous
 62
     7
370
    25
100
AcDbPolyline
 90
       24
 70
   128
 43
0.0
 10
706.0932894002
 20
-395.0220658623
 10
706.9160578444
 20
-395.6484131121
 10
707.4155909413
 20
-396.3796801889
 10
707.5548406061
 20
-397.1616323588
 10
707.3234793284
 20
-397.9362758066
 10
706.7386661156
 20
-398.6461587716
 10
705.8437738884
 20
-399.2386324816
 10
704.7051727094
 20
-399.6697558722
 10
703.4073074194
 20
-399.9075544935
 10
702.0464347496
 20
-399.9343919098
 10
700.7234844002
 20
-399.7482777126
 10
699.5365735467
 20
-399.3630151406
 10
698.5737299372
 20
-398.8071773562
 10
697.9063632776
 20
-398.1219883051
 10
697.5839691
 20
-397.3582653247
 10
697.6304579057
 20
-396.5726502547
 10
698.0423818327
 20
-395.8234085708
 10
698.7891903676
 20
-395.1661081012
 10
699.815496138
 20
-394.6494978149
 10
701.0451827399
 20
-394.3118923332
 10
702.3870499434
 20
-394.1783303105
 10
703.7415775966
 20
-394.258717431
 10
705.0083065802
 20
-394.5470917495
 10
706.0932894002
 20
-395.0220658623
  0
LWPOLYLINE
  5
10A
330
1F
100
AcDbEntity
  8
0
  6
Continuous
 62
     7
370
    25
100
AcDbPolyline
 90
       29
 70
   128
 43
0.0
 10
892.7694796335
 20
-287.2561951017
 10
891.7921577072
 20
-286.5487157718
 10
891.1120437896
 20
-285.7334290185
 10
890.7632416325
 20
-284.851216724
 10
890.7632416325
 20
-283.9463166966
 10
891.1120437896
 20
-283.0641044021
 10
891.7921577072
 20
-282.2488176489
 10
892.7694796335
 20
-281.5413383189
 10
893.9950025662
 20
-280.9771423801
 10
895.4072736681
 20
-280.5845209727
 10
896.935475769
 20
-280.3831617735
 10
898.5029784345
 20
-280.3831617735
 10
900.0311805355
 20
-280.5845209727
 10
901.4434516374
 20
-280.9771423801
 10
902.6689745701
 20
-281.5413383189
 10
903.6462964964
 20
-282.2488176489
 10
904.3264104139
 20
-283.0641044021
 10
904.675212571
 20
-283.9463166966
 10
904.675212571
 20
-284.851216724
 10
904.3264104139
 20
-285.7334290185
 10
903.6462964964
 20
-286.5487157718
 10
902.6689745701
 20
-287.2561951017
 10
901.4434516374
 20
-287.8203910405
 10
900.0311805355
 20
-288.2130124479
 10
898.5029784345
 20
-288.4143716472
 10
896.935475769
 20
-288.4143716472
 10
895.4072736681
 20
-288.2130124479
 10
893.9950025662
 20
-287.8203910405
 10
892.7694796335
 20
-287.2561951017
  0
LWPOLYLINE
  5
10B
330
1F
100
AcDbEntity
  8
0
  6
Continuous
 62
     7
370
    25
100
AcDbPolyline
 90
       24
 70
   128
 43
0.0
 10
894.1836931958
 20
-286.4397869899
 10
893.3609247516
 20
-285.81343974
 10
892.8613916548
 20
-285.0821726633
 10
892.7221419899
 20
-284.3002204934
 10
892.9535032677
 20
-283.5255770456
 10
893.5383164805
 20
-282.8156940806
 10
894.4332087077
 20
-282.2232203705
 10
895.5718098866
 20
-281.79209698
 10
896.8696751766
 20
-281.5542983586
 10
898.2305478465
 20
-281.5274609423
 10
899.5534981958
 20
-281.7135751395
 10
900.7404090494
 20
-282.0988377116
 10
901.7032526588
 20
-282.654675496
 10
902.3706193185
 20
-283.3398645471
 10
902.6930134961
 20
-284.1035875275
 10
902.6465246904
 20
-284.8892025975
 10
902.2346007634
 20
-285.6384442813
 10
901.4877922284
 20
-286.2957447509
 10
900.461486458
 20
-286.8123550373
 10
899.2317998562
 20
-287.1499605189
 10
897.8899326527
 20
-287.2835225416
 10
896.5354049994
 20
-287.2031354212
 10
895.2686760159
 20
-286.9147611026
 10
894.1836931958
 20
-286.4397869899
  0
LWPOLYLINE
  5
10C
330
1F
100
AcDbEntity
  8
0
  6
Continuous
 62
     1
370
    25
100
AcDbPolyline
 90
       82
 70
   128
 43
0.0
 10
675.8088259319
 20
-345.2245738877
 10
679.8102886764
 20
-343.0693362784
 10
684.5527620223
 20
-340.8889900192
 10
689.4577932805
 20
-339.019900197
 10
694.5179128974
 20
-337.4649131273
 10
699.7254151457
 20
-336.2263967989
 10
705.0723698583
 20
-335.306237268
 10
710.5506345051
 20
-334.7058357856
 10
716.1518665929
 20
-334.4261066642
 10
721.867536369
 20
-334.4674758851
 10
727.6889398113
 20
-334.8298804498
 10
733.6072118824
 20
-335.512768476
 10
739.6133400302
 20
-336.5151000378
 10
745.6981779124
 20
-337.8353487496
 10
751.8524593245
 20
-339.4715040903
 10
758.0668123111
 20
-341.4210744653
 10
764.3317734376
 20
-343.6810910005
 10
770.6378022017
 20
-346.2481120635
 10
776.9752955617
 20
-349.1182285046
 10
783.3346025607
 20
-352.28706961
 10
789.706039023
 20
-355.7498097573
 10
796.0799023019
 20
-359.5011757644
 10
802.446486055
 20
-363.5354549198
 10
808.7960950255
 20
-367.8465036818
 10
815.1190598062
 20
-372.4277570341
 10
821.4057515647
 20
-377.2722384837
 10
827.6465967065
 20
-382.3725706843
 10
833.832091454
 20
-387.7209866714
 10
839.9528163188
 20
-393.3093416896
 10
845.9994504467
 20
-399.129125596
 10
851.9627858113
 20
-405.1714758198
 10
857.8337412364
 20
-411.4271908582
 10
863.6033762254
 20
-417.8867442891
 10
869.2629045759
 20
-424.5402992781
 10
874.8037077598
 20
-431.3777235586
 10
880.2173480478
 20
-438.3886048612
 10
885.4955813587
 20
-445.56226677
 10
890.6303698139
 20
-452.8877849814
 10
895.6138939774
 20
-460.3540039395
 10
900.4385647641
 20
-467.9495538242
 10
905.0970349961
 20
-475.6628678662
 10
909.5822105918
 20
-483.4821999603
 10
913.8872613686
 20
-491.3956425536
 10
918.0056314441
 20
-499.3911447784
 10
921.9310492202
 20
-507.4565308037
 10
925.657536933
 20
-515.579518377
 10
929.1794197565
 20
-523.747737528
 10
932.4913344441
 20
-531.9487494064
 10
935.588237496
 20
-540.1700652238
 10
938.4654128396
 20
-548.3991652724
 10
941.1184790116
 20
-556.6235179901
 10
943.5433958298
 20
-564.8305990445
 10
945.7364705458
 20
-573.0079104049
 10
947.6943634687
 20
-581.1429993748
 10
949.4140930504
 20
-589.2234775557
 10
950.8930404264
 20
-597.2370397123
 10
952.128953404
 20
-605.1714825111
 10
953.1199498914
 20
-613.0147231047
 10
953.8645207645
 20
-620.7548175312
 10
954.3615321647
 20
-628.3799789038
 10
954.6102272256
 20
-635.8785953593
 10
954.6102272256
 20
-643.2392477418
 10
954.3615321647
 20
-650.450726992
 10
953.8645207645
 20
-657.5020512163
 10
953.1199498914
 20
-664.3824824113
 10
952.128953404
 20
-671.081542815
 10
950.8930404264
 20
-677.5890308636
 10
949.4140930504
 20
-683.895036726
 10
947.6943634687
 20
-689.9899573957
 10
945.7364705458
 20
-695.8645113138
 10
943.5433958298
 20
-701.5097525036
 10
941.1184790116
 20
-706.9170841941
 10
938.4654128396
 20
-712.078271911
 10
935.588237496
 20
-716.9854560167
 10
932.4913344441
 20
-721.6311636794
 10
929.1794197565
 20
-726.0083202526
 10
925.657536933
 20
-730.1102600488
 10
921.9310492202
 20
-733.9307364903
 10
918.0056314441
 20
-737.4639316217
 10
913.8872613686
 20
-740.7044649697
 10
909.5822105918
 20
-743.6474017364
 10
906.7903862006
 20
-745.338956053
  0
LWPOLYLINE
  5
10D
330
1F
100
AcDbEntity
  8
0
  6
Continuous
 62
     1
370
    25
100
AcDbPolyline
 90
       82
 70
   128
 43
0.0
 10
693.4867124434
 20
-335.0193472285
 10
697.487958206
 20
-332.8642348806
 10
702.2304315519
 20
-330.6838886214
 10
707.1354628101
 20
-328.8147987992
 10
712.1955824271
 20
-327.2598117295
 10
717.4030846753
 20
-326.0212954012
 10
722.7500393879
 20
-325.1011358702
 10
728.2283040348
 20
-324.5007343878
 10
733.8295361226
 20
-324.2210052664
 10
739.5452058987
 20
-324.2623744873
 10
745.3666093409
 20
-324.6247790521
 10
751.284881412
 20
-325.3076670782
 10
757.2910095599
 20
-326.30999864
 10
763.3758474421
 20
-327.6302473518
 10
769.5301288542
 20
-329.2664026925
 10
775.7444818407
 20
-331.2159730675
 10
782.0094429673
 20
-333.4759896027
 10
788.3154717313
 20
-336.0430106657
 10
794.6529650914
 20
-338.9131271068
 10
801.0122720903
 20
-342.0819682122
 10
807.3837085527
 20
-345.5447083595
 10
813.7575718316
 20
-349.2960743667
 10
820.1241555847
 20
-353.3303535221
 10
826.4737645551
 20
-357.641402284
 10
832.7967293358
 20
-362.2226556363
 10
839.0834210944
 20
-367.0671370859
 10
845.3242662362
 20
-372.1674692865
 10
851.5097609836
 20
-377.5158852736
 10
857.6304858485
 20
-383.1042402918
 10
863.6771199764
 20
-388.9240241982
 10
869.6404553409
 20
-394.966374422
 10
875.5114107661
 20
-401.2220894604
 10
881.2810457551
 20
-407.6816428913
 10
886.9405741056
 20
-414.3351978804
 10
892.4813772895
 20
-421.1726221608
 10
897.8950175775
 20
-428.1835034634
 10
903.1732508884
 20
-435.3571653722
 10
908.3080393435
 20
-442.6826835836
 10
913.2915635071
 20
-450.1489025417
 10
918.1162342937
 20
-457.7444524264
 10
922.7747045258
 20
-465.4577664684
 10
927.2598801215
 20
-473.2770985625
 10
931.5649308982
 20
-481.1905411558
 10
935.6833009738
 20
-489.1860433807
 10
939.6087187499
 20
-497.251429406
 10
943.3352064627
 20
-505.3744169792
 10
946.8570892862
 20
-513.5426361302
 10
950.1690039738
 20
-521.7436480086
 10
953.2659070256
 20
-529.964963826
 10
956.1430823693
 20
-538.1940638746
 10
958.7961485413
 20
-546.4184165923
 10
961.2210653595
 20
-554.6254976467
 10
963.4141400755
 20
-562.8028090071
 10
965.3720329983
 20
-570.937897977
 10
967.09176258
 20
-579.0183761579
 10
968.5707099561
 20
-587.0319383145
 10
969.8066229337
 20
-594.9663811133
 10
970.7976194211
 20
-602.8096217069
 10
971.5421902942
 20
-610.5497161335
 10
972.0392016944
 20
-618.174877506
 10
972.2878967552
 20
-625.6734939615
 10
972.2878967552
 20
-633.0341463441
 10
972.0392016944
 20
-640.2456255942
 10
971.5421902942
 20
-647.2969498186
 10
970.7976194211
 20
-654.1773810135
 10
969.8066229337
 20
-660.8764414172
 10
968.5707099561
 20
-667.3839294658
 10
967.09176258
 20
-673.6899353283
 10
965.3720329983
 20
-679.7848559979
 10
963.4141400755
 20
-685.659409916
 10
961.2210653595
 20
-691.3046511058
 10
958.7961485413
 20
-696.7119827963
 10
956.1430823693
 20
-701.8731705132
 10
953.2659070256
 20
-706.780354619
 10
950.1690039738
 20
-711.4260622816
 10
946.8570892862
 20
-715.8032188548
 10
943.3352064627
 20
-719.905158651
 10
939.6087187499
 20
-723.7256350925
 10
935.6833009738
 20
-727.2588302239
 10
931.5649308982
 20
-730.4993635719
 10
927.2598801215
 20
-733.4423003386
 10
924.4679396823
 20
-735.1339216483
  0
ENDSEC
  0
SECTION
  2
OBJECTS
  0
DICTIONARY
  5
C
330
0
100
AcDbDictionary
281
     1
  3
ACAD_GROUP
350
D
  3
ACAD_LAYOUT
350
1A
  3
ACAD_MLINESTYLE
350
17
  3
ACAD_PLOTSETTINGS
350
19
  3
ACAD_PLOTSTYLENAME
350
E
  3
ACAD_SCALELIST
350
47
  3
DWGPROPS
350
10E
  0
DICTIONARY
  5
D
102
{ACAD_REACTORS
330
C
102
}
330
C
100
AcDbDictionary
281
     1
  0
DICTIONARY
  5
1A
102
{ACAD_REACTORS
330
C
102
}
330
C
100
AcDbDictionary
281
     1
  3
Layout1
350
1E
  3
Layout2
350
26
  3
Model
350
22
  0
DICTIONARY
  5
17
102
{ACAD_REACTORS
330
C
102
}
330
C
100
AcDbDictionary
281
     1
  3
Standard
350
18
  0
DICTIONARY
  5
19
102
{ACAD_REACTORS
330
C
102
}
330
C
100
AcDbDictionary
281
     1
  0
ACDBDICTIONARYWDFLT
  5
E
102
{ACAD_REACTORS
330
C
102
}
330
C
100
AcDbDictionary
281
     1
  3
Normal
350
F
100
AcDbDictionaryWithDefault
340
F
  0
DICTIONARY
  5
47
102
{ACAD_REACTORS
330
C
102
}
330
C
100
AcDbDictionary
281
     1
  3
A0
350
48
  3
A1
350
49
  3
A2
350
4A
  3
A3
350
4B
  3
A4
350
4C
  3
A5
350
4D
  3
A6
350
4E
  3
A7
350
4F
  3
A8
350
50
  3
A9
350
51
  3
B0
350
52
  3
B1
350
53
  3
B2
350
54
  3
B3
350
55
  3
B4
350
56
  3
B5
350
57
  3
B6
350
58
  3
B7
350
59
  3
B8
350
5A
  3
B9
350
5B
  3
C0
350
5C
  3
C1
350
5D
  3
C2
350
5E
  3
C3
350
5F
  3
C4
350
60
  3
C5
350
61
  3
C6
350
62
  3
C7
350
63
  3
C8
350
64
  3
C9
350
65
  3
D0
350
66
  3
D1
350
67
  3
D2
350
68
  0
XRECORD
  5
10E
102
{ACAD_REACTORS
330
C
102
}
330
C
100
AcDbXrecord
280
     1
  1
DWGPROPS COOKIE
  2

  3

  4

  6

  7

  8
b.kav
  9

300
=
301
=
302
=
303
=
304
=
305
=
306
=
307
=
308
=
309
=
 40
0.0
 41
2460390.230138866
 42
2460390.230139062
  1

 90
        0
  0
LAYOUT
  5
1E
102
{ACAD_REACTORS
330
1A
102
}
330
1A
100
AcDbPlotSettings
  1

  2
none_device
  4

  6

 40
0.0
 41
0.0
 42
0.0
 43
0.0
 44
0.0
 45
0.0
 46
0.0
 47
0.0
 48
0.0
 49
0.0
140
0.0
141
0.0
142
1.0
143
1.0
 70
   688
 72
     1
 73
     0
 74
     5
  7

 75
    16
147
1.0
148
0.0
149
0.0
100
AcDbLayout
  1
Layout1
 70
     1
 71
     1
 10
0.0
 20
0.0
 11
420.0
 21
297.0
 12
0.0
 22
0.0
 32
0.0
 14
1.0000000000E+20
 24
1.0000000000E+20
 34
1.0000000000E+20
 15
-1.0000000000E+20
 25
-1.0000000000E+20
 35
-1.0000000000E+20
146
0.0
 13
0.0
 23
0.0
 33
0.0
 16
1.0
 26
0.0
 36
0.0
 17
0.0
 27
1.0
 37
0.0
 76
     0
330
1B
  0
LAYOUT
  5
26
102
{ACAD_REACTORS
330
1A
102
}
330
1A
100
AcDbPlotSettings
  1

  2
none_device
  4

  6

 40
0.0
 41
0.0
 42
0.0
 43
0.0
 44
0.0
 45
0.0
 46
0.0
 47
0.0
 48
0.0
 49
0.0
140
0.0
141
0.0
142
1.0
143
1.0
 70
   688
 72
     1
 73
     0
 74
     5
  7

 75
    16
147
1.0
148
0.0
149
0.0
100
AcDbLayout
  1
Layout2
 70
     1
 71
     2
 10
0.0
 20
0.0
 11
0.0
 21
0.0
 12
0.0
 22
0.0
 32
0.0
 14
0.0
 24
0.0
 34
0.0
 15
0.0
 25
0.0
 35
0.0
146
0.0
 13
0.0
 23
0.0
 33
0.0
 16
1.0
 26
0.0
 36
0.0
 17
0.0
 27
1.0
 37
0.0
 76
     0
330
23
  0
LAYOUT
  5
22
102
{ACAD_REACTORS
330
1A
102
}
330
1A
100
AcDbPlotSettings
  1

  2
none_device
  4
Letter_(8.50_x_11.00_Inches)
  6

 40
6.35
 41
6.35
 42
6.35000508
 43
6.35000508
 44
215.9
 45
279.4
 46
0.0
 47
0.0
 48
0.0
 49
0.0
140
0.0
141
0.0
142
1.0
143
1.0
 70
  1712
 72
     1
 73
     0
 74
     0
  7

 75
     0
147
1.0
148
0.0
149
0.0
100
AcDbLayout
  1
Model
 70
     1
 71
     0
 10
0.0
 20
0.0
 11
279.4
 21
215.9
 12
0.0
 22
0.0
 32
0.0
 14
0.0
 24
0.0
 34
0.0
 15
279.4
 25
215.9
 35
0.0
146
0.0
 13
0.0
 23
0.0
 33
0.0
 16
1.0
 26
0.0
 36
0.0
 17
0.0
 27
1.0
 37
0.0
 76
     0
330
1F
331
29
  0
MLINESTYLE
  5
18
102
{ACAD_REACTORS
330
17
102
}
330
17
100
AcDbMlineStyle
  2
Standard
 70
     0
  3

 62
   256
 51
90.0
 52
90.0
 71
     2
 49
0.5
 62
   256
  6
BYLAYER
 49
-0.5
 62
   256
  6
BYLAYER
  0
ACDBPLACEHOLDER
  5
F
102
{ACAD_REACTORS
330
E
102
}
330
E
  0
SCALE
  5
48
102
{ACAD_REACTORS
330
47
102
}
330
47
100
AcDbScale
 70
     0
300
1:1
140
1.0
141
1.0
290
     1
  0
SCALE
  5
49
102
{ACAD_REACTORS
330
47
102
}
330
47
100
AcDbScale
 70
     0
300
1:2
140
1.0
141
2.0
290
     0
  0
SCALE
  5
4A
102
{ACAD_REACTORS
330
47
102
}
330
47
100
AcDbScale
 70
     0
300
1:4
140
1.0
141
4.0
290
     0
  0
SCALE
  5
4B
102
{ACAD_REACTORS
330
47
102
}
330
47
100
AcDbScale
 70
     0
300
1:5
140
1.0
141
5.0
290
     0
  0
SCALE
  5
4C
102
{ACAD_REACTORS
330
47
102
}
330
47
100
AcDbScale
 70
     0
300
1:8
140
1.0
141
8.0
290
     0
  0
SCALE
  5
4D
102
{ACAD_REACTORS
330
47
102
}
330
47
100
AcDbScale
 70
     0
300
1:10
140
1.0
141
10.0
290
     0
  0
SCALE
  5
4E
102
{ACAD_REACTORS
330
47
102
}
330
47
100
AcDbScale
 70
     0
300
1:16
140
1.0
141
16.0
290
     0
  0
SCALE
  5
4F
102
{ACAD_REACTORS
330
47
102
}
330
47
100
AcDbScale
 70
     0
300
1:20
140
1.0
141
20.0
290
     0
  0
SCALE
  5
50
102
{ACAD_REACTORS
330
47
102
}
330
47
100
AcDbScale
 70
     0
300
1:30
140
1.0
141
30.0
290
     0
  0
SCALE
  5
51
102
{ACAD_REACTORS
330
47
102
}
330
47
100
AcDbScale
 70
     0
300
1:40
140
1.0
141
40.0
290
     0
  0
SCALE
  5
52
102
{ACAD_REACTORS
330
47
102
}
330
47
100
AcDbScale
 70
     0
300
1:50
140
1.0
141
50.0
290
     0
  0
SCALE
  5
53
102
{ACAD_REACTORS
330
47
102
}
330
47
100
AcDbScale
 70
     0
300
1:100
140
1.0
141
100.0
290
     0
  0
SCALE
  5
54
102
{ACAD_REACTORS
330
47
102
}
330
47
100
AcDbScale
 70
     0
300
2:1
140
2.0
141
1.0
290
     0
  0
SCALE
  5
55
102
{ACAD_REACTORS
330
47
102
}
330
47
100
AcDbScale
 70
     0
300
4:1
140
4.0
141
1.0
290
     0
  0
SCALE
  5
56
102
{ACAD_REACTORS
330
47
102
}
330
47
100
AcDbScale
 70
     0
300
8:1
140
8.0
141
1.0
290
     0
  0
SCALE
  5
57
102
{ACAD_REACTORS
330
47
102
}
330
47
100
AcDbScale
 70
     0
300
10:1
140
10.0
141
1.0
290
     0
  0
SCALE
  5
58
102
{ACAD_REACTORS
330
47
102
}
330
47
100
AcDbScale
 70
     0
300
100:1
140
100.0
141
1.0
290
     0
  0
SCALE
  5
59
102
{ACAD_REACTORS
330
47
102
}
330
47
100
AcDbScale
 70
     0
300
1/128" = 1'-0"
140
0.0078125
141
12.0
290
     0
  0
SCALE
  5
5A
102
{ACAD_REACTORS
330
47
102
}
330
47
100
AcDbScale
 70
     0
300
1/64" = 1'-0"
140
0.015625
141
12.0
290
     0
  0
SCALE
  5
5B
102
{ACAD_REACTORS
330
47
102
}
330
47
100
AcDbScale
 70
     0
300
1/32" = 1'-0"
140
0.03125
141
12.0
290
     0
  0
SCALE
  5
5C
102
{ACAD_REACTORS
330
47
102
}
330
47
100
AcDbScale
 70
     0
300
1/16" = 1'-0"
140
0.0625
141
12.0
290
     0
  0
SCALE
  5
5D
102
{ACAD_REACTORS
330
47
102
}
330
47
100
AcDbScale
 70
     0
300
3/32" = 1'-0"
140
0.09375
141
12.0
290
     0
  0
SCALE
  5
5E
102
{ACAD_REACTORS
330
47
102
}
330
47
100
AcDbScale
 70
     0
300
1/8" = 1'-0"
140
0.125
141
12.0
290
     0
  0
SCALE
  5
5F
102
{ACAD_REACTORS
330
47
102
}
330
47
100
AcDbScale
 70
     0
300
3/16" = 1'-0"
140
0.1875
141
12.0
290
     0
  0
SCALE
  5
60
102
{ACAD_REACTORS
330
47
102
}
330
47
100
AcDbScale
 70
     0
300
1/4" = 1'-0"
140
0.25
141
12.0
290
     0
  0
SCALE
  5
61
102
{ACAD_REACTORS
330
47
102
}
330
47
100
AcDbScale
 70
     0
300
3/8" = 1'-0"
140
0.375
141
12.0
290
     0
  0
SCALE
  5
62
102
{ACAD_REACTORS
330
47
102
}
330
47
100
AcDbScale
 70
     0
300
1/2" = 1'-0"
140
0.5
141
12.0
290
     0
  0
SCALE
  5
63
102
{ACAD_REACTORS
330
47
102
}
330
47
100
AcDbScale
 70
     0
300
3/4" = 1'-0"
140
0.75
141
12.0
290
     0
  0
SCALE
  5
64
102
{ACAD_REACTORS
330
47
102
}
330
47
100
AcDbScale
 70
     0
300
1" = 1'-0"
140
1.0
141
12.0
290
     0
  0
SCALE
  5
65
102
{ACAD_REACTORS
330
47
102
}
330
47
100
AcDbScale
 70
     0
300
1-1/2" = 1'-0"
140
1.5
141
12.0
290
     0
  0
SCALE
  5
66
102
{ACAD_REACTORS
330
47
102
}
330
47
100
AcDbScale
 70
     0
300
3" = 1'-0"
140
3.0
141
12.0
290
     0
  0
SCALE
  5
67
102
{ACAD_REACTORS
330
47
102
}
330
47
100
AcDbScale
 70
     0
300
6" = 1'-0"
140
6.0
141
12.0
290
     0
  0
SCALE
  5
68
102
{ACAD_REACTORS
330
47
102
}
330
47
100
AcDbScale
 70
     0
300
1'-0" = 1'-0"
140
12.0
141
12.0
290
     0
  0
ENDSEC
  0
EOF
